Song name
# A B C D E F G H I J K L M N O P Q R S T U V W X Y Z

Kittie - Do You Think Im A Whore tab

this is the best version ive heard

song-do you think im a whore
artist-kittie
tabbed by fawn

drop tuning

"how could i fucking beleive you" part
|----------------------|
|----------------------|
|----------------------|
|2-2-2-3-2-2-2-2-3-2-0-|
|2-2-2-3-2-2-2-2-3-2-0-|
|2-2-2-3-2-2-2-2-3-2-0-|


"like  me......."
|--------------------------|
|--------------------------|
|--------------------------|
|--------------------------|
|--------------------------|
|2p0-2p0-2-3-0-2p0-2p0-2-3-|

"im a whore......"
|------------------|
|------------------|
|------------------|
|2-0-2-0-2-0-2-3-4-|
|2-0-2-0-2-0-2-3-4-|
|2-0-2-0-2-0-2-3-4-|

yeah-its very easy.enjoy!!!!!!!!!!
Tap to rate this tab
# A B C D E F G H I J K L M N O P Q R S T U V W X Y Z