Song name
# A B C D E F G H I J K L M N O P Q R S T U V W X Y Z

Kittie - Jonny tab

Kittie - Jonny (Not Johnny!) 

Gr8 song =) mail matt.8768@yahoo.co.uk for any questions/comments 

Tuning:
 
 6=C  3=F
 5=G  2=A
 4=C  1=D
 
 Intro Part 1
 
 d|---------------------------------|-----------------------------------|
 A|---------------------------------|-----------------------------------|
 F|---------------------------------|-----------------------------------|
 C|---------------------------------|-----------------------------------|
 G|-1-0-0-1-0-0-1-0-1-0-0-1-0-0-1-0-|-----------------------------------|
 C|-1-0-0-1-0-0-1-0-1-0-0-1-0-0-1-0-|---1-0-0-1-0-0-1-0-1-0-0-1-0-0-1-0-|
    pm.............................    release pm
 


 Intro Part 2
  [ X4                            ]
 d|-------------------------------|
 A|-------------------------------|
 F|-------------------------------|
 C|-1-0-0-1-0-0-1-0-1-0-0-1-0-0-4-|
 G|-1-0-0-1-0-0-1-0-1-0-0-1-0-0-4-|
 C|-1-0-0-1-0-0-1-0-1-0-0-1-0-0-4-|
 

 Verse                        
  [ X4                         ]                                       
 d|----------------------------|
 A|----------------------------|
 F|----------------------------|
 C|------------------4-4-4-4-4-|
 G|-5-4-0-5-4-0-5-4--4-4-4-4-4-|
 C|-5-4-0-5-4-0-5-4--4-4-4-4-4-|
                     harm...    
           
Chorus:
  [ X4                            ]
 d|-------------------------------|
 A|-------------------------------|
 F|-------------------------------|  
 C|-------------------------------|
 G|-1-0-0-1-0-0-1-0-1-0-0-1-0-0-4-|
 C|-1-0-0-1-0-0-1-0-1-0-0-1-0-0-4-|

 
 
 "...Jonny's Been A Very Bad Boy..." Part
 
 [ X3                              ]
 d|---------------------------------|
 A|---------------------------------|
 F|---------------------------------|
 C|---------------------------------|
 G|-0-0-0-0-0-0-0-0-7-0-0-7-0-0-7/8-|
 C|-0-0-0-0-0-0-0-0-7-0-0-7-0-0-7/8-|
    pm.............   ...   ...


 d|-------------------------| 
 A|-------------------------|
 F|-------------------------|
 C|-------------------------|
 G|-0-0-0-0-0-0-0-0-7-0-0-7-|
 C|-0-0-0-0-0-0-0-0-7-0-0-7-|


 Bridge Part 1:              
  [ X4                    ]
 d|-----------------------|
 A|-----------------------|
 F|-----------------------|
 C|-----------------------|
 G|-5-4-0-5-4-0-5-4-5-4-0-|
 C|-5-4-0-5-4-0-5-4-5-4-0-|
    pm...................
 

Bridge Part 2:

 "...You Look At Me..."

 d|-----------------------|
 A|-----------------------|
 F|-----------------------|
 C|-----------------------|
 G|5-4-0-5-4-0-5-4-5-4-0--|
 C|5-4-0-5-4-0-5-4-5-4-0--|


 Outro:
 
 d|----------------------------------|
 A|----------------------------------|
 F|----------------------------------|
 C|---------------------4-4-4-4-4----|
 G|---------------------4-4-4-4-4----|
 C|-5-4-0-5-4-0-5-4-5-4-4-4-4-4-4----|
 
 
 
============================================================================
Tap to rate this tab
# A B C D E F G H I J K L M N O P Q R S T U V W X Y Z