Guitaretab - guitar tabs
Song name
# A B C D E F G H I J K L M N O P Q R S T U V W X Y Z
Home / K / Kittie / Oracle tab

Kittie - Oracle tab

There are SO many wrong tabs on here for Kittie. Voila, Oracle. :) The entire album. 
the End coming soon.

Tuning: CGCFAD (Drop D then down a whole step)
*Please note, the numbers are a GUIDE. It's hard to listen to the same riff twenty odd 
and hear it perfectly, so bear with me.


::1. Oracle::

<>
D|----------------------------|-|----------------------------|-|
A|----------------------------|-|----------------------------|-|
F|----------------------------|x|----------------------------|x|
C|2--2----------2--2----------|4|----------------------------|4|
G|2--2--111111112--2--11111111|-|2--2----------2--2----------|-|
C|2--2--111111112--2--11111111|-|2--2--111111112--2--11111111|-|
PM     ........      ........

<>
D|----------------------------|-|----------------|-|:|
A|----------------------------|-|----------------|-|:|
F|----------------------------|x|----------------|x|:|
C|2--2----------2--2-2--------|4|----------------|4|:|
G|2--2--111111112--2-21-1-1-1-|-|3-1-1-2-1-2-3-1-|-|:|
C|2--2--111111112--2-21-1-1-1-|-|3-1-1-2-1-2-3-1-|-|:|
       ........      . . . .    . . . . . . . .
A glance over your own shoulder
A vow that today will stand out
Caged in routine
Intent unknown, the element of surprise
Impact undetermined but vast

<>
D|----------------|-|
A|----------------|-|
F|----------------|x|
C|----------------|4|
G|3-1-1-2-1-2-3---|-|
C|3-1-1-2-1-2-3---|-|
 . . . . . . .
Mark me, mark me, mark me...

<>
D|----------------------------|-|
A|----------------------------|-|
F|----------------------------|x|
C|------5-----4---------6-6-6-|4|
G|1-1-1-3-1-1-2-1-1-1-1-4-4-4-|-|
C|1-1-1---1-1---1-1-1-1-------|-|
 . . .   . .   . . . .
Brandising, a cold, loaded smile

D|----------------------------|-|----------------------------|-|
A|----------------------------|-|----------------------------|-|
F|----------------------------|x|----------------------------|x|
C|2--2----------2--2----------|8|----------------------------|3|
G|2--2--111111112--2--11111111|-|2--2----------2--2----------|-|
C|2--2--111111112--2--11111111|-|2--2--111111112--2--11111111|-|
PM     ........      ........
Simplicity, subtlety, discordance, fate and allegory
Everything has it's purpose and you will suffer for what you've done

<>
D|------|
A|------|
F|------|
C|------|
G|-2-2--|
C|-2-2--|

::2. Mouthful of Poison::

<>
D|---------------|-|
A|---------------|-|
F|---------------|x|
C|----1----------|8|
G|----1--2/3-1/2-|-|
C|00001--2/3-1/2-|-|
PM....

<>
D|-------------|--|
A|-------------|--|
F|-------------|-x|
C|----1--4-3-2-|25|
G|----1--4-3-2-|--|
C|00001--4-3-2-|--|
  ....   . . .
Blood spilled, head filled, heart felt, play dead
Consider yourself now my friend enemy number one
You are bound and gagged, sacred circle, broken trust
Now the plague has been cast in your town
Acid tongue, venom word, why bother to lie
Leave the lamp behind

<>
D|--------------|-|----------------|:|
A|--------------|-|----------------|:|
F|--------------|x|----------------|:|
C|--------1-0---|3|2222333311113333|:|
G|--------1-0---|-|2222333311113333|:|
C|000000001-0---|-|2222333311113333|:|
  ........
Your mouthful of
Your mouthful of lead and lies

<>
D|-------------|--|
A|-------------|--|
F|-------------|-x|
C|----1--4-3-2-|22|
G|----1--4-3-2-|--|
C|00001--4-3-2-|--|
  ....   . . .
Don't walk into fire you might find that you'll get burned
What a find dirty face guilt at last is this a lesson that's learnt
Can you hear your own blood in your veins calling out your demise
Silence, a word to the wise

<>
D|--------------|-|----------------|:|
A|--------------|-|----------------|:|
F|--------------|x|----------------|:|
C|--------1-0---|3|2222333311113333|:|
G|--------1-0---|-|2222333311113333|:|
C|000000001-0---|-|2222333311113333|:|
  ........
Your mouthful of
Your mouthful of lead and lies

<>
D|----------------------------------------------------------------|-|
A|----------------------------------------------------------------|-|
F|----------------------------------------------------------------|x|
C|0-0-0-0-1-0-0-0-1-0-0-0-1-0-0-0-1-0-0-0-1-0-0-0-2-2-3-3-1-1-3-3-|4|
G|0-0-0-0-1-0-0-0-1-0-0-0-1-0-0-0-1-0-0-0-1-0-0-0-2-2-3-3-1-1-3-3-|-|
C|0-0-0-0-1-0-0-0-1-0-0-0-1-0-0-0-1-0-0-0-1-0-0-0-2-2-3-3-1-1-3-3-|-|
I can't hear you scream
Drowning so it seems

<>
D|--------------------------------------|-|
A|--------------------------------------|-|
F|--------------------------------------|x|
C|0-0--1-0--1-0--1-0--1-0--1-0--2-3-1-3-|4|
G|0-0--1-0--1-0--1-0--1-0--1-0--2-3-1-3-|-|
C|0-0--1-0--1-0--1-0--1-0--1-0--2-3-1-3-|-|
  .    .    .    .    .    .
Your mouth is full of poison
YOW!

<>
D|---------------|
A|---------------|
F|---------------|
C|000000001-0--0-|
G|000000001-0--0-|
C|000000001-0--0-| Repeat til fade
  ........  .  .

::3. In Winter ::

<>
D|--------------------|-|
A|--------------------|-|
F|--------------------|x|
C|2-2-2-2-2-2--2222-2-|4|
G|2-2-2-2-2-2--2222-2-|-|
C|2-2-2-2-2-2--2222-2-|-|
PM. . . . . .  .... .

<>
D|--------------------|-|--------------------|-|:|
A|--------------------|-|--------------------|-|:|
F|--------------------|2|--------------------|x|:|
C|2-2-2-2-2-2--2222-2-|x|0-0-0-0-0-0--0000-0-|2|:|
G|2-2-2-2-2-2--2222-2-|-|0-0-0-0-0-0--0000-0-|-|:|
C|2-2-2-2-2-2--2222-2-|-|0-0-0-0-0-0--0000-0-|-|:|
  . . . . . .  .... .    . . . . . .  .... .
You fell to the ground like rain
On dead ears your cries met
Hands and knees were blistered
Shouting from the tallest tree you declared wrong
But they never let go there's safety in numbers

<>
D|-----------------------------|-|
A|-----------------------------|-|
F|-----------------------------|x|
C|6-0-0-0-2-5-1--222-0-2-7-0-0-|4|
G|6-0-0-0-2-5-1--222-0-2-7-0-0-|-|
C|6-0-0-0-2-5-1--222-0-2-7-0-0-|-|
                 ...
This cold hearted world

<>
D|--------------------------------------------------------------------|-|
A|--------------------------------------------------------------------|-|
F|--------------------------------------------------------------------|x|
C|2---66--77--66---2---66--77--66---0---66--77--66---0---66--77--66---|2|
G|2---66--77--66---2---66--77--66---0---66--77--66---0---66--77--66---|-|
C|2---66--77--66---2---66--77--66---0---66--77--66---0---66--77--66---|-|
The coldest winter?

<>
D|--------------------|-|--------------------|-|:|
A|--------------------|-|--------------------|-|:|
F|--------------------|2|--------------------|x|:|
C|2-2-2-2-2-2--2222-2-|x|0-0-0-0-0-0--0000-0-|2|:|
G|2-2-2-2-2-2--2222-2-|-|0-0-0-0-0-0--0000-0-|-|:|
C|2-2-2-2-2-2--2222-2-|-|0-0-0-0-0-0--0000-0-|-|:|
  . . . . . .  .... .    . . . . . .  .... .
You don't see me like I know you
Hiding behind glass so sickened by gried
You can't let them win they'll have you
Playing life makes death so good

<>
D|-----------------------------|-|
A|-----------------------------|-|
F|-----------------------------|x|
C|6-0-0-0-2-5-1--222-0-2-7-0-0-|4|
G|6-0-0-0-2-5-1--222-0-2-7-0-0-|-|
C|6-0-0-0-2-5-1--222-0-2-7-0-0-|-|
                 ...
This cold hearted world

<>
D|-----------------------------------------------------------------|-|
A|-----------------------------------------------------------------|-|
F|-----------------------------------------------------------------|x|
C|2--66--77--66---2--66--77--66---0--66--77--66---0---66--77--66---|2|
G|2--66--77--66---2--66--77--66---0--66--77--66---0---66--77--66---|-|
C|2--66--77--66---2--66--77--66---0--66--77--66---0---66--77--66---|-|
The coldest winter?

<>
D|-------------------------------------------|--|
A|-------------------------------------------|--|
F|-------------------------------------------|-x|
C|0222222222202222222222277777777777222222222|12|
G|0222222222202222222222277777777777222222222|--|
C|0222222222202222222222277777777777222222222|--|
You don't know
And you never will

<>
D|--------------------|-|
A|--------------------|-|
F|--------------------|x|
C|2-2-2-2-2-2--2222-2-|8|
G|2-2-2-2-2-2--2222-2-|-|
C|2-2-2-2-2-2--2222-2-|-|
PM. . . . . .  .... .

::4. Severed::

BASS INTRO!!
<>
D|------------|--|
A|------------|--|
F|------------|-x|
C|------------|30|
G|3-2-0-4-5p4-|--|
C|3-2-0-4-5p4-|--|
PM. . . .
Look at you now
You selfish pig

<>
D|-------------------------------------|-|
A|-------------------------------------|-|
F|-------------------------------------|x|
C|-------------------------------------|8|
G|0000000000---0000000000--000000------|-|
C|0000000000---0000000000--000000------|-|
  ..........   ..........  ......
I walked around in circles to revisit where I've always been
You spoke of where your heart was I thought I knew you well
Ties that bind you have been severed

<>
D|------------|-|--------|-|:|
A|------------|-|--------|-|:|
F|------------|x|--------|x|:|
C|------------|4|3-3-3-3-|8|:|
G|3-2-0-4-5p4-|-|1-1-1-1-|-|:|
C|3-2-0-4-5p4-|-|--------|-|:|
  . . . .
Look at you now eyes wide open truth begged to be told
Look at you now eyes wide open for you bought and sold

<>
D|--------------------------|-|
A|--------------------------|-|
F|--------------------------|x|
C|--------------------------|4|
G|2-----4-5------2t4t1t3t0--|-|
C|2-----4-5------2t4t1t3t0--|-|

<>
D|-------------------------------------|-|
A|-------------------------------------|-|
F|-------------------------------------|x|
C|-------------------------------------|8|
G|0000000000---0000000000--000000------|-|
C|0000000000---0000000000--000000------|-|
  ..........   ..........  ......
I want to make you feel this trusting arms let me fall once again
I stood close to an enemy and closer to a friend
Ties that bind you have been severed

<>
D|------------|-|--------|-|:|
A|------------|-|--------|-|:|
F|------------|x|--------|x|:|
C|------------|4|3-3-3-3-|8|:|
G|3-2-0-4-5p4-|-|1-1-1-1-|-|:|
C|3-2-0-4-5p4-|-|--------|-|:|
  . . . .
Look at you now...

BASS OUTRO

::5. Run Like Hell::
(Pink Floyd cover)

<>
D|--------------------------------------------------------------|-|
A|--------------------------------------------------------------|-|
F|--------------------------------------------------------------|x|
C|1---1-1-1---1-1-1---1-1-1---1-1-1---1-1-1---1-1-1-1-1-0-1-0-1-|2|
G|1---1-1-1---1-1-1---1-1-1---1-1-1---1-1-1---1-1-1-1-1-0-1-0-1-|-|
C|1---1-1-1---1-1-1---1-1-1---1-1-1---1-1-1---1-1-1-1-1-0-1-0-1-|-|

<>
D|------------------------------------|-|
A|------------------------------------|-|
F|------------------------------------|x|
C|1---11--1-1-1-1-1-11xx1-1-1-1-1-11xx|4|
G|1---11--1-1-1-1-1-11xx1-1-1-1-1-11xx|-|
C|1---11--1-1-1-1-1-11xx1-1-1-1-1-11xx|-|

<>
D|----------------------------|-|
A|----------------------------|-|
F|----------------------------|x|
C|1-1-1-1-1-11XX1-1-1-1-1-11XX|8|
G|1-1-1-1-1-11XX1-1-1-1-1-11XX|-|
C|1-1-1-1-1-11XX1-1-1-1-1-11XX|-|

<>
D|--------------------------------------------------------------|-|
A|--------------------------------------------------------------|-|
F|11-11-9---------7-7-5---------6-6-4---------8-8-8-9-9---------|x|
C|11-11-9---------7-7-5---------6-6-4---------8-8-8-9-9---------|4|
G|9--9--7---------5-5-3---------4-4-2---------6-6-6-7-7---------|-|
C|--------------------------------------------------------------|-|

<>
D|--------------------------------------------------------------|
A|--------------------------------------------------------------|
F|--------------------------------------------------------------|
C|4~~~~~--------8~~~~~--------1--11-1-1-1-1-11XX1-1-1-1-1-1-11XX|
G|4~~~~~444444448~~~~~888888881--11-1-1-1-1-11XX1-1-1-1-1-1-11XX|
C|4~~~~~444444448~~~~~888888881--11-1-1-1-1-11XX1-1-1-1-1-1-11XX|
       ........      ........
Run, run, run, run, run, run, run, run, RUN! YEAH!

<>
D|------------------------------------|-|
A|------------------------------------|-|
F|------------------------------------|x|
C|1---11--1-1-1-1-1-11xx1-1-1-1-1-11xx|4|
G|1---11--1-1-1-1-1-11xx1-1-1-1-1-11xx|-|
C|1---11--1-1-1-1-1-11xx1-1-1-1-1-11xx|-|

<>
|-----------------------------------------------------------------|
|-----------------------------------------------------------------|
|-----------------------------------------------------------------|
|3~~--------4~~-------3~~--------7~~--------5~~--------3~~--------|
|3~~333333334~~44444443~~333333337~~777777775~~555555553~~33333333|
|3~~333333334~~44444443~~333333337~~777777775~~555555553~~33333333|
    ........   .......   ........   ........   ........
You better make your face up in your favourite disguise
With your button down lips and your roller blind eyes
With your empty smile and your hungry heart
Feel the bile rise up from your guilty past
With your nerves in shatters as the pockle shell shatters
And the hammer batters down the door
YOU BETTER RUN

<>
D|------------------------------------|-|
A|------------------------------------|-|
F|------------------------------------|x|
C|1---11--1-1-1-1-1-11xx1-1-1-1-1-11xx|4|
G|1---11--1-1-1-1-1-11xx1-1-1-1-1-11xx|-|
C|1---11--1-1-1-1-1-11xx1-1-1-1-1-11xx|-|

<>
D|----------------------------|-|
A|----------------------------|-|
F|----------------------------|x|
C|1-1-1-1-1-11XX1-1-1-1-1-11XX|8|
G|1-1-1-1-1-11XX1-1-1-1-1-11XX|-|
C|1-1-1-1-1-11XX1-1-1-1-1-11XX|-|

<>
D|--------------------------------------------------------------|-|
A|--------------------------------------------------------------|-|
F|11-11-9---------7-7-5---------6-6-4---------8-8-8-9-9---------|x|
C|11-11-9---------7-7-5---------6-6-4---------8-8-8-9-9---------|4|
G|9--9--7---------5-5-3---------4-4-2---------6-6-6-7-7---------|-|
C|--------------------------------------------------------------|-|

<>
D|--------------------------------------------------------------|
A|--------------------------------------------------------------|
F|--------------------------------------------------------------|
C|4~~~~~--------8~~~~~--------1--11-1-1-1-1-11XX1-1-1-1-1-1-11XX|
G|4~~~~~444444448~~~~~888888881--11-1-1-1-1-11XX1-1-1-1-1-1-11XX|
C|4~~~~~444444448~~~~~888888881--11-1-1-1-1-11XX1-1-1-1-1-1-11XX|
       ........      ........
Run, run, run, run, run, run, run, run, RUN! YEAH!

<>
D|------------------------------------|-|
A|------------------------------------|-|
F|------------------------------------|x|
C|1---11--1-1-1-1-1-11xx1-1-1-1-1-11xx|4|
G|1---11--1-1-1-1-1-11xx1-1-1-1-1-11xx|-|
C|1---11--1-1-1-1-1-11xx1-1-1-1-1-11xx|-|

<>
|-----------------------------------------------------------------|
|-----------------------------------------------------------------|
|-----------------------------------------------------------------|
|3~~--------4~~-------3~~--------7~~--------5~~--------3~~--------|
|3~~333333334~~44444443~~333333337~~777777775~~555555553~~33333333|
|3~~333333334~~44444443~~333333337~~777777775~~555555553~~33333333|
    ........   .......   ........   ........   ........
You better run all day and run all night
And keep your dirty feelings deep inside
And if youíre taking your girlfriend out tonight
You better park the car well out of sight
Cuz if they catch you in the backseat trying to pick her locks
Theyíre gonna send you back to your mother in a cardboard box
You better run

<>
D|----------------------------|:|
A|----------------------------|:|
F|----------------------------|:|
C|1-1-1-1-1-11XX1-1-1-1-1-11XX|:|
G|1-1-1-1-1-11XX1-1-1-1-1-11XX|:|
C|1-1-1-1-1-11XX1-1-1-1-1-11XX|:|

Repeat over solo, sorry, unsure of that.

<>
D|--------------------------------------------------------------|
A|--------------------------------------------------------------|
F|--------------------------------------------------------------|
C|4~~~~~--------8~~~~~--------1--11-1-1-1-1-11XX1-1-1-1-1-1-11XX|
G|4~~~~~444444448~~~~~888888881--11-1-1-1-1-11XX1-1-1-1-1-1-11XX|
C|4~~~~~444444448~~~~~888888881--11-1-1-1-1-11XX1-1-1-1-1-1-11XX|
       ........      ........
Run, run, run, run, run, run, run, run, RUN! YEAH!


::6. Pain::
[ Tab from: http://www.guitaretab.com/k/kittie/40367.html ]
<>
D|--------------------------------|-|
A|--------------------------------|-|
F|--------------------------------|x|
C|--------------------------------|4|
G|--------------------------------|-|
C|1-1-1-1-1-1-1-1-1-1-1-1-22222222|-|
 . . . . . . . . . . . . ........

<>
D|--------------------------------|-|
A|--------------------------------|-|
F|--------------------------------|x|
C|--------------------------------|4|
G|1-1-1-1-1-1-1-1-1-1-1-1-22222222|-|
C|1-1-1-1-1-1-1-1-1-1-1-1-22222222|-|
 . . . . . . . . . . . . ........
I feel your pain
I feel your pain

<>
D|------------------------------------|-|-----------------------------|
A|------------------------------------|-|-----------------------------|
F|------------------------------------|x|-----------------------------|
C|0-0----0-0----0-0----0-0------------|3|0-0--0-0--0------------------|
G|0-0----0-0----0-0----0-0--------3h5-|-|0-0--0-0--0-5---3-5-3-5-3----|
C|0-0----0-0----0-0----0-0----3h5-----|-|0-0--0-0--0----------------5-|
Almost lost it all
You are all the same
The wounded bleed to death
Tarnish my name

<>
D|--------------------|-|
A|--------------------|-|
F|--------------------|x|
C|0~~~~~~~5-5-5-2-2-2-|4|
G|0~~~~~~~5-5-5-2-2-2-|-|
C|0~~~~~~~5-5-5-2-2-2-|-|
         . . . . . .
You deserve nothing at all
You knew that life was a game
You deserve nothing at all
You must endure your own pain

<>
D|--------------------------------|-|
A|--------------------------------|-|
F|--------------------------------|x|
C|--------------------------------|4|
G|--------------------------------|-|
C|1-1-1-1-1-1-1-1-1-1-1-1-22222222|-|
 . . . . . . . . . . . . ........

<>
D|--------------------------------|-|
A|--------------------------------|-|
F|--------------------------------|x|
C|--------------------------------|4|
G|1-1-1-1-1-1-1-1-1-1-1-1-22222222|-|
C|1-1-1-1-1-1-1-1-1-1-1-1-22222222|-|
 . . . . . . . . . . . . ........

<>
D|------------------------------------|-|-----------------------------|
A|------------------------------------|-|-----------------------------|
F|------------------------------------|x|-----------------------------|
C|0-0----0-0----0-0----0-0------------|3|0-0--0-0--0------------------|
G|0-0----0-0----0-0----0-0--------3h5-|-|0-0--0-0--0-5---3-5-3-5-3----|
C|0-0----0-0----0-0----0-0----3h5-----|-|0-0--0-0--0----------------5-|
Left in the dark
Without a light
Hollow empty
Letís get it right

<>
D|--------------------|-|
A|--------------------|-|
F|--------------------|x|
C|0~~~~~~~5-5-5-2-2-2-|4|
G|0~~~~~~~5-5-5-2-2-2-|-|
C|0~~~~~~~5-5-5-2-2-2-|-|
         . . . . . .
You deserve nothing at all
You knew that life was a game
You deserve nothing at all
You must endure your own pain

<>
D|-------------|-|--------------------------------|-|
A|-------------|-|--------------------------------|-|
F|-------------|x|--------------------------------|x|
C|--------1~~~~|4|--------------------------------|4|
G|111111111~~~~|-|0-2-4-0-1-2-4-0-1-2-4-0-2-4-1---|-|
C|111111111~~~~|-|0-2-4-0-1-2-4-0-1-2-4-0-2-4-1---|-|
  ........        . . . . . . . . . . . . . .
Red dress serpent
Just stop it, just stop it
Red dress serpent
And youíll stay here

<>
D|--------------------|-|
A|--------------------|-|
F|--------------------|x|
C|0~~~~~~~5-5-5-2-2-2-|4|
G|0~~~~~~~5-5-5-2-2-2-|-|
C|0~~~~~~~5-5-5-2-2-2-|-|
         . . . . . .
You deserve nothing at all
You knew that life was a game
You deserve nothing at all
You must endure your own pain

<>
D|----------------------------------|
A|----------------------------------|
F|----------------------------------|
C|0~~----------------5-5-5-2-2-2-0~~|
G|0~~----3-5-5-3-5-3-5-5-5-2-2-2-0~~|
C|0~~3-5-------------5-5-5-2-2-2-0~~|


::7. Wolves::

<>
D|------------------|-|
A|------------------|-|
F|------------------|x|
C|------------------|8|
G|3-2-0-4-3-0-5-4-5-|-|
C|3-2-0-4-3-0-5-4-5-|-|

<>
D|---|------------------------|-|
A|---|------------------------|-|
F|---|------------------------|x|
C|2~~|------------------------|8|
G|2~~|2-1-0-3-2-0-2-1-0-3-2-4-|-|
C|2~~|2-1-0-3-2-0-2-1-0-3-2-4-|-|
      . . . . . . . . . . . .
It crawls along the floor subdued
Well nothing, amounts to nothing,
Realizing nothing, afraid of nothing,
Act upon nothing, stopping at nothing,
Considering nothing, consequence nothing

<>
D|---------------|
A|---------------|
F|---------------|
C|---------------|
G|1-1-1-3--1-1-1-|
C|1-1-1-3--1-1-1-|
  . . .    . . .
Comes back
Like wolves

<>
D|------------------|-|
A|------------------|-|
F|------------------|x|
C|------------------|8|
G|3-2-0-4-3-0-5-4-5-|-|
C|3-2-0-4-3-0-5-4-5-|-|

<>
D|---|------------------------|-|
A|---|------------------------|-|
F|---|------------------------|x|
C|2~~|------------------------|8|
G|2~~|2-1-0-3-2-0-2-1-0-3-2-4-|-|
C|2~~|2-1-0-3-2-0-2-1-0-3-2-4-|-|
      . . . . . . . . . . . .
Hydra head times six cowering
Well nothing, amounts to nothing,
Realizing nothing, afraid of nothing,
Act upon nothing, stopping at nothing,
Considering nothing, consequence nothing

<>
D|---------------|
A|---------------|
F|---------------|
C|---------------|
G|1-1-1-3--1-1-1-|
C|1-1-1-3--1-1-1-|
  . . .    . . .
Comes back
Like wolves

<>
D|--------|-|
A|--------|-|
F|--------|x|
C|1~~-0~~-|4|
G|1~~-0~~-|-|
C|1~~-0~~-|-|

<>
D|--------|-|------------|-|-----|
A|--------|-|------------|-|-----|
F|--------|x|------------|x|-----|
C|--------|8|------------|4|-0~~-|
G|1-1-1-3-|-|------3-2-0-|-|-0~~-|
C|1-1-1-3-|-|3-2-0-------|-|-0~~-|
  . . .
If I could I would have begged you
If I could I would have begged you

::8. What I Always Wanted::

<>
D|---------------------------|-|
A|---------------------------|-|
F|---------------------------|x|
C|3-3-4-4-0-1--3-3-3-4-4-0-1-|8|
G|3-3-4-4-0-1--3-3-3-4-4-0-1-|-|
C|3-3-4-4-0-1--3-3-3-4-4-0-1-|-|
Open up itís revealed

<>
D|----------------------------------------------------------------|-|
A|----------------------------------------------------------------|-|
F|----------------------------------------------------------------|x|
C|4-4-4-4-4-4-4-4-4-4-4-4-4-4-4-0-3-3-3-3-3-3-3-3-3-3-3-3-3-3-3-3-|2|
G|4-4-4-4-4-4-4-4-4-4-4-4-4-4-4-0-3-3-3-3-3-3-3-3-3-3-3-3-3-3-3-3-|-|
C|4-4-4-4-4-4-4-4-4-4-4-4-4-4-4-0-3-3-3-3-3-3-3-3-3-3-3-3-3-3-3-3-|-|
Savour this, donít get lost in a lie, hit or miss

<>
D|---------------------------|-|
A|---------------------------|-|
F|---------------------------|x|
C|3-3-4-4-0-1--3-3-3-4-4-0-1-|8|
G|3-3-4-4-0-1--3-3-3-4-4-0-1-|-|
C|3-3-4-4-0-1--3-3-3-4-4-0-1-|-|
Beside myself with doubt press on whatís to come must be proved

<>
D|----------------------------------------------------------------|-|
A|----------------------------------------------------------------|-|
F|----------------------------------------------------------------|x|
C|4-4-4-4-4-4-4-4-4-4-4-4-4-4-4-0-3-3-3-3-3-3-3-3-3-3-3-3-3-3-3-3-|2|
G|4-4-4-4-4-4-4-4-4-4-4-4-4-4-4-0-3-3-3-3-3-3-3-3-3-3-3-3-3-3-3-3-|-|
C|4-4-4-4-4-4-4-4-4-4-4-4-4-4-4-0-3-3-3-3-3-3-3-3-3-3-3-3-3-3-3-3-|-|
Focus bliss, charcoal stares, one foot at a time, smear those lines

<>
D|----------------------------------------------------------|:|
A|----------------------------------------------------------|:|
F|----------------------------------------------------------|:|
C|1-1-4-3-3-3-3-1-1-4-3-3-3-3-1-1-4-3-3-3-3-2-2-2-2-7-7-7-7-|:|
G|1-1-4-3-3-3-3-1-1-4-3-3-3-3-1-1-4-3-3-3-3-2-2-2-2-7-7-7-7-|:|
C|1-1-4-3-3-3-3-1-1-4-3-3-3-3-1-1-4-3-3-3-3-2-2-2-2-7-7-7-7-|:|
  . .           . .           . .
(Itís what) I thought (I) I found (thought) what I always wanted, bear with me

BASS SOLO

<>
D|----------------------------------------------------------------|-|
A|----------------------------------------------------------------|-|
F|----------------------------------------------------------------|x|
C|4-4-4-4-4-4-4-4-4-4-4-4-4-4-4-0-3-3-3-3-3-3-3-3-3-3-3-3-3-3-3-3-|2|
G|4-4-4-4-4-4-4-4-4-4-4-4-4-4-4-0-3-3-3-3-3-3-3-3-3-3-3-3-3-3-3-3-|-|
C|4-4-4-4-4-4-4-4-4-4-4-4-4-4-4-0-3-3-3-3-3-3-3-3-3-3-3-3-3-3-3-3-|-|
Certainty, is not at hand, I canít keep my eyes shut, chose not to listen

<>
D|----------------------------------------------------------|:|
A|----------------------------------------------------------|:|
F|----------------------------------------------------------|:|
C|1-1-4-3-3-3-3-1-1-4-3-3-3-3-1-1-4-3-3-3-3-2-2-2-2-7-7-7-7-|:|
G|1-1-4-3-3-3-3-1-1-4-3-3-3-3-1-1-4-3-3-3-3-2-2-2-2-7-7-7-7-|:|
C|1-1-4-3-3-3-3-1-1-4-3-3-3-3-1-1-4-3-3-3-3-2-2-2-2-7-7-7-7-|:|
  . .           . .           . .
(Itís what) I thought (I) I found (thought) what I always wanted, bear with me

<>
D|------------|-|
A|------------|-|
F|------------|x|
C|4/5-2-0-3-0-|8|
G|4/5-2-0-3-0-|-|
C|4/5-2-0-3-0-|-|
  . .
I got what I wanted
I got just what I always wanted

<>
D|----------------------------------------------------------|
A|----------------------------------------------------------|
F|----------------------------------------------------------|
C|1-1-4-3-3-3-3-1-1-4-3-3-3-3-1-1-4-3-3-3-3-2-2-2-2-7-7-7-7-|
G|1-1-4-3-3-3-3-1-1-4-3-3-3-3-1-1-4-3-3-3-3-2-2-2-2-7-7-7-7-|
C|1-1-4-3-3-3-3-1-1-4-3-3-3-3-1-1-4-3-3-3-3-2-2-2-2-7-7-7-7-|
  . .           . .           . .
Once I fought

::9. Safe::

Piano intro
In this darkness
Troubled water
Lies a flicker
Of hopes fire
Come to your senses
Wager a risk
I wonít let go
Waiting for this
Itís wonderful
Reality
I watch as
This golden bird
Flies free

<>
D|----------------------------------------------------------------|
A|----------------------------------------------------------------|
F|----------------------------------------------------------------|
C|----1---1-----1-----0---0-----0-----8---8-----8-----7---7-----7-|
G|--1---1---1-------0---0---0-------8---8---8-------7---7---7-----|
C|1-----------1---0-----------0---8-----------8---7-----------7---|

<>
D|----------------------|
A|----------------------|
F|----------------------|
C|1---1-0---0-8---8-7---|
G|1---1-0---0-8---8-7---|
C|1---1-0---0-8---8-7---|

<>
D|-----------------------------|-|
A|-----------------------------|-|
F|-----------------------------|x|
C|0h1---1p0---0/8---8p10h8/7---|4|
G|-----------------------------|-|
C|-----------------------------|-|
Down, never
When this breath is done
And know me I canít
See me for what happened to be
And the endÖ

<>
D|----------------------------------------------------------------|
A|----------------------------------------------------------------|
F|----------------------------------------------------------------|
C|----1---1-----1-----0---0-----0-----8---8-----8-----7---7-----7-|
G|--1---1---1-------0---0---0-------8---8---8-------7---7---7-----|
C|1-----------1---0-----------0---8-----------8---7-----------7---|
In this ash vault
A rose garden
These walls will never
See me, just toÖ

<>
D|-----------------------------------------------------------------|-|
A|-----------------------------------------------------------------|-|
F|-----------------------------------------------------------------|x|
C|1-1-1-1-1-1-1-1-0-0-0-0-0-0-0-0-8-8-8-8-8-8-10-8-7-7-7-7-7-7-7-7-|4|
G|1-1-1-1-1-1-1-1-0-0-0-0-0-0-0-0-8-8-8-8-8-8-10-8-7-7-7-7-7-7-7-7-|-|
C|1-1-1-1-1-1-1-1-0-0-0-0-0-0-0-0-8-8-8-8-8-8-10-8-7-7-7-7-7-7-7-7-|-|
SaveÖ meÖ

<>
D|----------------|-|
A|----------------|-|
F|----------------|x|
C|1---0---8---7---|4|
G|1---0---8---7---|-|
C|1---0---8---7---|-|

::10. No Name::

<>
D|--------|-|----------|-|----------------|
A|--------|-|----------|-|----------------|
F|--------|x|----------|x|----------------|
C|8-8-----|4|8-8-------|4|1-1-1-1-1-1-1-1-|
G|8-8-----|-|8-8-3-4-3-|-|1-1-1-1-1-1-1-1-|
C|8-8-----|-|8-8-3-4-3-|-|1-1-1-1-1-1-1-1-|
PM               . . .    . . . . . . . .

<>
D|-------------------------------------------|-|---------------|-|:|
A|-------------------------------------------|-|---------------|-|:|
F|-------------------------------------------|x|---------------|-|:|
C|-------------------------------------------|4|444333344440000|-|:|
G|000000004-0000003-0000004-1111111144444444-|-|444333344440000|-|:|
C|000000004-0000003-0000004-1111111144444444-|-|444333344440000|-|:|
  ........  ......  ......  ................
Indeed I will condescend
Exhausting every trace
To give you what you asked for
Everything you demanded you bleed right from me
At last I will be free

<>
D|---------------|-|
A|---------------|-|
F|---------------|x|
C|1-1/4-4-1-1/4-4|4|
G|1-1/4-4-1-1/4-4|-|
C|1-1/4-4-1-1/4-4|-|
And the phoenix risesÖ

<>
D|----------|-|----------------|
A|----------|-|----------------|
F|----------|x|----------------|
C|8-8-------|4|1-1-1-1-1-1-1-1-|
G|8-8-3-4-3-|-|1-1-1-1-1-1-1-1-|
C|8-8-3-4-3-|-|1-1-1-1-1-1-1-1-|
PM    . . .    . . . . . . . .

<>
D|-------------------------------------------|-|---------------|-|-|
A|-------------------------------------------|-|---------------|-|-|
F|-------------------------------------------|x|---------------|-|X|
C|-------------------------------------------|4|444333344440000|-|2|
G|000000004-0000003-0000004-1111111144444444-|-|444333344440000|-|-|
C|000000004-0000003-0000004-1111111144444444-|-|444333344440000|-|-|
  ........  ......  ......  ................
Invasion of my last hope
For once just know your place
We are only human
Everything you demanded
You bleed right from me
So weak I cannot see

<>
D|---------------|-|
A|---------------|-|
F|---------------|x|
C|1-1/4-4-1-1/4-4|4|
G|1-1/4-4-1-1/4-4|-|
C|1-1/4-4-1-1/4-4|-|
And the phoenix risesÖ

<>
D|----------------------|--|------------|-|----------|-|
A|----------------------|--|------------|-|----------|-|
F|----------------------|-x|------------|x|----------|x|
C|----------------------|12|000011114444|8|8-8-------|2|
G|----------------------|--|000011114444|-|8-8-3-4-3-|-|
C|0-0-0-0-6h8-0-0-6h8-9-|--|000011114444|-|8-8-3-4-3-|-|
Corruption at its finest

::11. Pink Lemonade::

<>
D|------------------------|-|
A|------------------------|-|
F|------------------------|x|
C|0~~~~~~~~~~~0~~~~~~~~~~~|2|
G|0~~~~~~~~~~~0~~~~~~~~~~~|-|
C|0~~~~~~~~~~~0~~~~~~~~~~~|-|
PM            .

<>
D|--------------------|--|
A|--------------------|--|
F|--------------------|-x|
C|4/1~~~~~~~3/0~~~~~~~|16|
G|4/1~~~~~~~3/0~~~~~~~|--|
C|4/1~~~~~~~3/0~~~~~~~|--|
Trusted you with my life
Shattered dreams broken glass
I hope there is closure down your path
For I have yet to find the means to forgive
So what if you were all I had? Is it over?
Wasting away and forget to see
Go choose your way leaving everything
You walked away from this did it make it easierÖ

<>
D|--------------------|-|
A|--------------------|-|
F|--------------------|x|
C|5~~~5~~~5~~~5-6-3-0-|5|
G|5~~~5~~~5~~~5-6-3-0-|-|
C|5~~~5~~~5~~~5-6-3-0-|-|
Öon you?

<>
D|--------------------|--|
A|--------------------|--|
F|--------------------|-x|
C|4/1~~~~~~~3/0~~~~~~~|10|
G|4/1~~~~~~~3/0~~~~~~~|--|
C|4/1~~~~~~~3/0~~~~~~~|--|
So what now? What now? Life must go on
Still haunted even after all Iíve been through
You know how hard it is to face this day
I hope itís good for you I tried, oh how I tried
But itís broken


<>
D|-------------------------------------------------------------------------|
A|-------------------------------------------------------------------------|
F|-------------------------------------------------------------------------|
C|-------------------------------------------------------------------------|
G|111-111-111-111-111-111-111-111-111-111-111-111-111-111--333-333-333-333-|
C|111-111-111-111-111-111-111-111-111-111-111-111-111-111--333-333-333-333-|
  ... ... ... ... ... ... ... ... ... ... ... ... ... ...  ... ... ... ...
Let me go, I could have diedÖ

<>
D|-------------------------------------------------------------------------|
A|-------------------------------------------------------------------------|
F|-------------------------------------------------------------------------|
C|-------------------------------------------------------------------------|
G|000-000-000-000-000-000-000-000-000-000-000-000-000-000--444-444-444-444-|
C|000-000-000-000-000-000-000-000-000-000-000-000-000-000--444-444-444-444-|
  ... ... ... ... ... ... ... ... ... ... ... ... ... ...  ... ... ... ...

<>
D|------------------------|-|
A|------------------------|-|
F|------------------------|x|
C|0~~~~~~~~~~~0~~~~~~~~~~~|2|
G|0~~~~~~~~~~~0~~~~~~~~~~~|-|
C|0~~~~~~~~~~~0~~~~~~~~~~~|-|
PM            .
Related for Oracle tab