Song name
# A B C D E F G H I J K L M N O P Q R S T U V W X Y Z

Kittie - What Ive Always Wanted tab

Help us improve GuitareTab! Take a short survey!
what ive always wanted
Kittie
this is for all you freaks out there thrash away
DrOp D TuNiNg (C,G,C,F,A,D)
[Intro]
D|-----------------------------------------|
A|-----------------------------------------|
F|-----------------------------------------|
C|-3--3--4--4--0--1----3--3--3--4--4--0--1-|
G|-3--3--4--4--0--1----3--3--3--4--4--0--1-|
C|-3--3--4--4--0--1----3--3--3--4--4--0--1-|

[Verse]
D|---------------------------------------------|
A|---------------------------------------------|
F|---------------------------------------------|
C|-4--4--4--4--4--4--4--4--4--4--4--4--4--4--0-|
G|-4--4--4--4--4--4--4--4--4--4--4--4--4--4--0-|
C|-4--4--4--4--4--4--4--4--4--4--4--4--4--4--0-|

D|---------------------------------------------|
A|---------------------------------------------|
F|---------------------------------------------|
C|-3--3--3--3--3--3--3--3--3--3--3--3--3--3--0-|
G|-3--3--3--3--3--3--3--3--3--3--3--3--3--3--0-|
C|-3--3--3--3--3--3--3--3--3--3--3--3--3--3--0-|
[Chorus]
D|------------------------------------------------|
A|------------------------------------------------|
F|------------------------------------------------|
C|-1--1--4--3--3--3--3--3--1--1--4--3--3--3--3--3-|
G|-1--1--4--3--3--3--3--3--1--1--4--3--3--3--3--3-|
C|-1--1--4--3--3--3--3--3--1--1--4--3--3--3--3--3-|

D|------------------------------------------------|
A|------------------------------------------------|
F|------------------------------------------------|
C|-1--1--4--3--3--3--3--3--2--2--2--2--0--7--7--7-|
G|-1--1--4--3--3--3--3--3--2--2--2--2--0--7--7--7-|
C|-1--1--4--3--3--3--3--3--2--2--2--2--0--7--7--7-|
[Pre-Verse For After Bass Solo]
D|-----
A|-----
F|-----
C|-3--3
G|-3--3
C|-3--3

[Outro]
D|--------------|
A|--------------|
F|--------------|
C|-3/4--0--0--1-|
G|-3/4--0--0--1-|
C|-3/4--0--0--1-|

if you have any corrections e-mail me at roachjuice@hotmail.com
Related for What Ive Always Wanted tab