Song name
# A B C D E F G H I J K L M N O P Q R S T U V W X Y Z

Kittie - Red Flag tab

Help us improve GuitareTab! Take a short survey!
Song - Red Flag
Artist - Kittie
Album - Until the End
Label - Artemis Records
Tuning - Standard Kittie Tuning (CGCFAD)
Tabber - Tom - tdawg247@(this is to prevent spam, remove to email)msn.com

theres only one place i had trouble tabbing, and that was the solo, im not sure if
morgan does power chords during it, (lisa wasnt there for the recording, so morgan
did both guitar parts) or if two different guitars are doing different notes, its
sounds right, but hey, you never know...
please rate my tab!


Intro - 0:01-0:13
D|--------------------------------|--------------------------------|
A|--------------------------------|--------------------------------|
F|------7------5------8----5----7-|------7------5------3----3----5-|
C|-0000-7-0000-5-0000-8-00-5-00-7-|-0000-7-0000-5-0000-3-xx-3-00-5-| x2
G|-0000-5-0000-3-0000-6-00-3-00-5-|-0000-5-0000-3-0000-1-xx-1-00-3-|
C|-0000---0000---0000---00---00---|-0000---0000---0000--------00---|
PM ....   ....   ....   ..   ..     ....   ....   ....   ..   .. 

Verse - 0:13-1:06

0:13-0:26
D|--------------------------------|--------------------------------|
A|--------------------------------|--------------------------------|
F|------7------5------8----5----7-|------7------5------3----3----5-|
C|-0000-7-0000-5-0000-8-00-5-00-7-|-0000-7-0000-5-0000-3-xx-3-00-5-| x2
G|-0000-5-0000-3-0000-6-00-3-00-5-|-0000-5-0000-3-0000-1-xx-1-00-3-|
C|-0000---0000---0000---00---00---|-0000---0000---0000--------00---|
PM ....   ....   ....   ..   ..     ....   ....   ....   ..   .. 

0:26-0:39
D|--------------------------------------|
A|--------------------------------------|
F|--------------------------------------|
C|-55555555-33333333-66666666-5555-0000-| x2
G|-55555555-33333333-66666666-5555-0000-|
C|-55555555-33333333-66666666-5555-0000-|
PM                                 ....

0:39-1:06
D|--------------------------------|--------------------------------|
A|--------------------------------|--------------------------------|
F|------7------5------8----5----7-|------7------5------3----3----5-|
C|-0000-7-0000-5-0000-8-00-5-00-7-|-0000-7-0000-5-0000-3-xx-3-00-5-| x4
G|-0000-5-0000-3-0000-6-00-3-00-5-|-0000-5-0000-3-0000-1-xx-1-00-3-|
C|-0000---0000---0000---00---00---|-0000---0000---0000--------00---|
PM ....   ....   ....   ..   ..     ....   ....   ....   ..   ..

Chorus - 1:06-1:31
D|-----------------------------------|
A|-----------------------------------|
F|-----------------------------------|
C|-5555555555555555-1111111111111111-| x4
G|-5555555555555555-1111111111111111-|
C|-5555555555555555-1111111111111111-|
PM

Bridge - 1:31-1:43
D|-------------------------------------------------------------------------|
A|-------------------------------------------------------------------------|
F|-------------------------------------------------------------------------|
C|-55555555-33333333-66666666-55550000-55555555-33333333-66666666-55555555-|
G|-55555555-33333333-66666666-55550000-55555555-33333333-66666666-55555555-|
C|-55555555-33333333-66666666-55550000-55555555-33333333-66666666-55555555-|
PM                                ....

Verse - 1:43-2:10
D|--------------------------------|--------------------------------|
A|--------------------------------|--------------------------------|
F|------7------5------8----5----7-|------7------5------3----3----5-|
C|-0000-7-0000-5-0000-8-00-5-00-7-|-0000-7-0000-5-0000-3-xx-3-00-5-| x4
G|-0000-5-0000-3-0000-6-00-3-00-5-|-0000-5-0000-3-0000-1-xx-1-00-3-|
C|-0000---0000---0000---00---00---|-0000---0000---0000--------00---|
PM ....   ....   ....   ..   ..     ....   ....   ....   ..   .. 

Chorus - 2:10-2:34

2:10-2:28
D|-----------------------------------|
A|-----------------------------------|
F|-----------------------------------|
C|-5555555555555555-1111111111111111-| x3
G|-5555555555555555-1111111111111111-|
C|-5555555555555555-1111111111111111-|
PM

2:28-3:34
D|-------------------------|
A|-------------------------|
F|-------------------------|
C|-5555555555555555-1-hold-| x1
G|-5555555555555555-1-hold-|
C|-5555555555555555-1-hold-|
PM

Second Bridge - 2:35-3:00

2:35-2:47
D|-----------------------------------|
A|-----------------------------------|
F|-----------------------------------|
C|-5-hold-----------1-hold-----------| x2
G|-5-hold-----------1-hold-----------|
C|-5-hold-----------1-hold-----------|
PM

2:47-3:01
D|-------------------------------------|--------------------------|
A|-------------------------------------|--------------------------|
F|-7~----9/10-9/10\9-------9/10-9/10\9-|-7~----9-10-9/10\9--------|
C|-5~----7/8--7/8-\7-8~----7/8--7/8-\7-|-5~----7/8--7/8-\7-8~-----| x1
G|-------------------6~----------------|-------------------6~-----|
C|-------------------------------------|--------------------------|
PM

End Chorus - 3:01-3:26

3:01-3:19
D|-----------------------------------|
A|-----------------------------------|
F|-----------------------------------|
C|-5555555555555555-1111111111111111-| x3
G|-5555555555555555-1111111111111111-|
C|-5555555555555555-1111111111111111-|
PM

3:20-3:48
D|-----------------------------------------------------|
A|-----------------------------------------------------|
F|-----------------------------------------------------|
C|-5555555555555555-1-hold-----------5-hold------------| x1
G|-5555555555555555-1-hold-----------5-hold------------|
C|-5555555555555555-1-hold-----------5-hold------------|
PM

thanks, email me with corrections
Related for Red Flag tab