Guitaretab - guitar tabs
Song name
# A B C D E F G H I J K L M N O P Q R S T U V W X Y Z

Kittie - Look So Pretty tab

----------------------------------------------------------------------------
			     Look So Pretty - Kittie
----------------------------------------------------------------------------
Tabbed by:CrosseGod18
Email:crossegod@yahoo.com

Yeah so there wasn't a tab for this song on here, so I made one. Love this song,
love Kittie. Standard Kittie stuff Drop C tuning, heavy distortion, brutal(eat
your first-born) attitude, I Love It!!!!. Enjoy

Tuning:CGCFAD

D|----------------------------|
A|----------------------------|
F|----------------------------|----------------------------|
C|-0---1---6---5---6---3---5--|X3                          | 
G|-0---1---6---5---4---3---3--|                            |
C|-0---1---6---5-------3------|                            |
                                 6 3 5                     |
After the 3rd time leave off the 4 3 3 and go down to      |X2
this                               3                       |
D|-----------|                                             |
A|-----------|                                             |
F|-----------|                                             |
C|--3--3--0--|---------------------------------------------|
G|--3--3--0--|
C|--3--3--0--|
-------------PM
Play the entire intro twice, then

D|----------------------------------------|
A|----------------------------------------|
F|----------------------------------------|
C|----------------------------------------|X4
G|----------------------------------------|
C|-222-222-444-222--222-222-444-555-------|
--------------------------------------PM


D|----------------------------------------|
A|----------------------------------------|
F|----------------------------------------|
C|----------------------------------------|X8
G|-222-222-444-222--222-222-444-555-------|
C|-222-222-444-222--222-222-444-555-------|
--------------------------------------PM                     5
On the 8th time through on the verse, play the last 5 open.
[ Tab from: http://www.guitaretab.com/k/kittie/70324.html ]
D|---------------------------------------|
A|---------------------------------------|
F|---------------------------------------|
C|--0------5/4--0------7/5--0------5/4---|X4
G|--0------5/4--0------7/5--0------5/4---|
C|--0-0000-5/4--0-0000-7/5--0-0000-5/4---|
      ----        ----        ----

D|----------------------------------------|
A|----------------------------------------|
F|----------------------------------------|
C|----------------------------------------|X4
G|----------------------------------------|
C|-222-222-444-222--222-222-444-555-------|
--------------------------------------PM

D|-----------------------|
A|-----------------------|
F|-----------------------|
C|-----------------------|X4
G|--------5/4---------2--|
C|---0000-5/4-0000000-2--|
-------------------------PM

D|---------|
A|---------|
F|---------|
C|-0-1-6-5-|
G|-0-1-6-5-|
C|-0-1-6-5-|

D|-------------------------------|
A|-------------------------------|
F|-------------------------------|-----|
C|--0-1-6-5-6-3-5--x3---0-1-6-5--|     |
G|--0-1-6-5-4-3-3-------0-1-6-5--|     |
C|--0-1-6-5---3---------0-1-6-5--|     |
                                       |X2
D|---------|                           |
A|---------|                           |
F|---------|                           |
C|---0-3-0-|---------------------------|
G|---0-3-0-| 
C|---0-3-0-|
-----------PM

D|-----------------------------|
A|-----------------------------|
F|-----------------------------|
C|-----------------------------|X4
G|-----------------------------|
C|--5-554-554-554-554-554-0000-|
-------------------------------PM

Thats about it. After this part it loops around. I believe that after the second
chorus that you can see that the very last part on here just repeats as the song
fades. Hope you like it, please rate and leave comments. This is my first tab so
I would like to know if I am any good at it so that I know whether I should tab
more. Thanx.

| /  slide up
| \  slide down
| h  hammer-on
| p  pull-off
| ~  vibrato
| +  harmonic
| -  Mute note
============================================================================
Related for Look So Pretty tab
Advertisement will be closed in 10 seconds