Song name
# A B C D E F G H I J K L M N O P Q R S T U V W X Y Z

Kittie - Pussy Sugar tab

Artist: Kittie 
Song: Pussy Sugar
Album: Until the End (2004)
Tabbed By: Cinthia G.

pm = palm mute
*  = harmonics
() = optional


d|-----------------------------|---------------------------------------| |
a|-----------------------------|---------------------------------------|.|
f|-----------------------------|---------------------------------------| |
c|--3--4--0-0-0--1--0--6--5----|---------------------------------------| |
g|--3--4--0-0-0--1--0--6--5----|---------------------------------------|.|
c|--3--4--0-0-0--1--0--6--5--x3|--7-7-7-7--4-4-4-4--6-6-6-6--3-3-3-3---| |x4
         |pm...|                 |pm................................|


d|-----------------------------|---------------------------------------| |
a|-----------------------------|---------------------------------------|.|
f|-----------------------------|---------------------------------------| |
c|--3--4--0-0-0--1--0--6--5----|---------------------------------------| |
g|--3--4--0-0-0--1--0--6--5----|---------------------------------------|.|
c|--3--4--0-0-0--1--0--6--5--x3|--7-7-7-7--4-4-4-4--6-6-6-6--3-3-3-3---| |x4
         |pm...|                 |pm................................|

d|-----|--0--|
a|-----|--2--|
f|-----|--3--|
c|--0--|--0--|
g|--0--|--0--|
c|--0--|--0--|


d|--------------------------|---------| |
a|--------------------------|---------|.|
f|--------------------------|---------| |
c|--0-0-0--0-0-0--0-0-0--0--|--0-0-0--| |
g|--0-0-0--0-0-0--0-0-0--0--|--0-0-0--|.|
c|--0-0-0--0-0-0--0-0-0--0--|--0-0-0--| |x6
   |pm....................|   |pm...|


d|------|
a|------|
f|------|
c|--5*--|
g|--5*--|
c|--5*--|


d|----------------------------------|-------------------------------------| |
a|----------------------------------|-------------------------------------|.|
f|--------------3-------------3--3--|--------------3-------------3--3--3--| |
c|--------------3-------------3--3--|--------------3-------------3--3--3--| |
g|--------------1-------------1--1--|--------------1-------------1--1--1--|.|
c|--0--2--3--0-----0-(2)3--0--------|--0--2--3--0-----0-(2)3--0-----------| |x4
   |pm........|   |pm.......|        |pm.........|   |pm.......|


d|----------------------------------| |
a|----------------------------------|.|
f|--------------3-------------3--3--| |
c|--------------3-------------3--3--| |
g|--------------1-------------1--1--|.|
c|--0--2--3--0-----0-(2)3--0--------| |x8
   |pm........|   |pm.......|


d|--------------------| |
a|--------------------|.|
f|--------------------| |
c|-(3-3-3-3--4--1--0)-| |
g|-(3-3-3-3--4--1--0)-|.|
c|--3-3-3-3--4--1--0--| |x4
  |optional palm mute| 
      "hey! hey!"  ^_^


d|--------------------------|---------| |
a|--------------------------|---------|.|
f|--------------------------|---------| |
c|--0-0-0--0-0-0--0-0-0--0--|--0-0-0--| |
g|--0-0-0--0-0-0--0-0-0--0--|--0-0-0--|.|
c|--0-0-0--0-0-0--0-0-0--0--|--0-0-0--| |x6
   |pm....................|   |pm...|


d|------|
a|------|
f|------|
c|--5*--|
g|--5*--|
c|--5*--|


d|----------------------------------|-------------------------------------| |
a|----------------------------------|-------------------------------------|.|
f|--------------3-------------3--3--|--------------3-------------3--3--3--| |
c|--------------3-------------3--3--|--------------3-------------3--3--3--| |
g|--------------1-------------1--1--|--------------1-------------1--1--1--|.|
c|--0--2--3--0-----0-(2)3--0--------|--0--2--3--0-----0-(2)3--0-----------| |x2 
   |pm........|   |pm.......|        |pm.........|   |pm.......|


d|----------------------------------| |
a|----------------------------------|.|
f|--------------3-------------3--3--| |
c|--------------3-------------3--3--| |
g|--------------1-------------1--1--|.|
c|--0--2--3--0-----0-(2)3--0--------| |x4
   |pm........|   |pm.......|


d|--------|
a|--------|
f|--------|
c|--2--1--|
g|--2--1--|
c|--2--1--|


d|-----------------------|-----------|--------|
a|-----------------------|-----------|--------|
f|-----------------------|-----------|--------|
c|--0--0--0--0--0--0--0--|--0--0--0--|--0--0--|
g|--0--0--0--0--0--0--0--|--0--0--0--|--0--0--|
c|--0--0--0--0--0--0--0--|--0--0--0--|--0--0--|
   |pm.................|   |pm.....|   |pm..|
  

d|------------------------|-----------|--------| |
a|------------------------|-----------|--------|.|
f|------------------------|-----------|--------| |
c|--0-0-0--0--0--0--0--0--|--0--0--0--|--0--0--| |
g|--0-0-0--0--0--0--0--0--|--0--0--0--|--0--0--|.|
c|--0-0-0--0--0--0--0--0--|--0--0--0--|--0--0--| |x2
   |pm..................|   |pm.....|   |pm..|


d|------------------------|--------------------|
a|------------------------|--------------------|
f|------------------------|--------------------|
c|--0-0-0--0--0--0--0--0--|--0--1--2--0--1--2--|
g|--0-0-0--0--0--0--0--0--|--0--1--2--0--1--2--|
c|--0-0-0--0--0--0--0--0--|--0--1--2--0--1--2--|
   |pm..................|   |pm..............|


d|------------------------|-----------|--------| |
a|------------------------|-----------|--------|.|
f|------------------------|-----------|--------| |
c|--0-0-0--0--0--0--0--0--|--0--0--0--|--0--0--| |
g|--0-0-0--0--0--0--0--0--|--0--0--0--|--0--0--|.|
c|--0-0-0--0--0--0--0--0--|--0--0--0--|--0--0--| |x3
   |pm..................|   |pm.....|   |pm..|


d|------------------------|--------------------|-----|
a|------------------------|--------------------|-----|
f|------------------------|--------------------|-----|
c|--0-0-0--0--0--0--0--0--|--0--1--2--0--1--2--|--0--|
g|--0-0-0--0--0--0--0--0--|--0--1--2--0--1--2--|--0--|
c|--0-0-0--0--0--0--0--0--|--0--1--2--0--1--2--|--0--|
   |pm..................|   |pm..............|  (let ring)
Tap to rate this tab
# A B C D E F G H I J K L M N O P Q R S T U V W X Y Z