Song name
# A B C D E F G H I J K L M N O P Q R S T U V W X Y Z

Kittie - Career Suicide tab

Artist: Kittie
Song: Career Suicide
Album: Until the End (2004)
Tabbed By: Cinthia G.


pm = palm mute
*  = harmonics
() = optional


d|--------------------------------------------------|
a|--------------------------------------------------|
f|--------------------------------------------------|
c|--------------------------------------------------|
g|--------------------------------------------------|
c|--4--4--4--0--0--0--4--4--4--0--0--0--5--5--5--5--|
   |pm.........................................|


d|--------------------------------------|
a|--------------------------------------|
f|--------------------------------------|
c|--------------------------------------|
g|--------------------------------------|
c|--4--4--4--0--0--0--4--4--4--0--0--0--|
   |pm................................|


d|--------------------------------------------------| |
a|--------------------------------------------------|.|
f|--------------------------------------------------| |
c|--4--4--4--0--0--0--4--4--4--0--0--0--5--5--5--5--| |
g|--4--4--4--0--0--0--4--4--4--0--0--0--5--5--5--5--|.|
c|--4--4--4--0--0--0--4--4--4--0--0--0--5--5--5--5--| |x8


d|----------------------|--------------------------| |
a|----------------------|--------------------------|.|
f|----------------------|--------------------------| |
c|------------------(5)-|------------------(5)(4)--| |
g|------------------(5)-|------------------(5)(4)--|.|
c|--0-0-0-0-0-0-0-0--5--|--0-0-0-0-0-0-0-0--5--4---| |x4
   |pm.............|      |pm.............|   


d|--------------------------------| |
a|--------------------------------|.|
f|--------------------------------| |
c|--2-2-2--2-2-2--3-5--5--5-6--6--| |
g|--2-2-2--2-2-2--3-5--5--5-6--6--|.|
c|--2-2-2--2-2-2--3-5--5--5-6--6--| |x8
   |__3__||__3__|


d|--------------------------------------------------|
a|--------------------------------------------------|
f|--------------------------------------------------|
c|--------------------------------------------------|
g|--------------------------------------------------|
c|--4--4--4--0--0--0--4--4--4--0--0--0--5--5--5--5--|
   |pm.........................................|


d|--------------------------------------|
a|--------------------------------------|
f|--------------------------------------|
c|--------------------------------------|
g|--------------------------------------|
c|--4--4--4--0--0--0--4--4--4--0--0--0--|
   |pm................................|


d|--------------------------------------------------| |
a|--------------------------------------------------|.|
f|--------------------------------------------------| |
c|--4--4--4--0--0--0--4--4--4--0--0--0--5--5--5--5--| |
g|--4--4--4--0--0--0--4--4--4--0--0--0--5--5--5--5--|.|
c|--4--4--4--0--0--0--4--4--4--0--0--0--5--5--5--5--| |x8


d|----------------------|--------------------------| |
a|----------------------|--------------------------|.|
f|----------------------|--------------------------| |
c|------------------(5)-|------------------(5)(4)--| |
g|------------------(5)-|------------------(5)(4)--|.|
c|--0-0-0-0-0-0-0-0--5--|--0-0-0-0-0-0-0-0--5--4---| |x4
   |pm.............|      |pm.............|   


d|--------------------------------| |
a|--------------------------------|.|
f|--------------------------------| |
c|--2-2-2--2-2-2--3-5--5--5-6--6--| |
g|--2-2-2--2-2-2--3-5--5--5-6--6--|.|
c|--2-2-2--2-2-2--3-5--5--5-6--6--| |x8
   |__3__||__3__|


d|---------------------------------| |
a|---------------------------------|.|
f|---------------------------------| |
c|-(5-5-5--5-5-5--5-5-5--5-5-5)-4--| |
g|-(5-5-5--5-5-5--5-5-5--5-5-5)-4--|.|
c|--5-5-5--5-5-5--5-5-5--5-5-5--4--| |x4
   |__3__||__3__||__3__||__3__|

d|--------------------------------| |
a|--------------------------------|.|
f|--------------------------------| |
c|--2-2-2--2-2-2--3-5--5--5-6--6--| |
g|--2-2-2--2-2-2--3-5--5--5-6--6--|.|
c|--2-2-2--2-2-2--3-5--5--5-6--6--| |x8
   |__3__||__3__|


d|------------------------------| |
a|------------------------------|.|
f|------------------------------| |
c|--4-4-4--4-4-4--4-4-4--4-4-4--| |
g|--4-4-4--4-4-4--4-4-4--4-4-4--|.|
c|--4-4-4--4-4-4--4-4-4--4-4-4--| |x4
   |__3__||__3__||__3__||__3__|


d|------|
a|------|
f|------|
c|--5*--|
g|--5*--|
c|--5*--|
(let ring)
Tap to rate this tab
# A B C D E F G H I J K L M N O P Q R S T U V W X Y Z