Song name
# A B C D E F G H I J K L M N O P Q R S T U V W X Y Z

Kix - Blow My Fuse tab

Guitars 1,2
E|-----0------0--------|----------------------|    2x
B|---0------0----------|---3---------------1--|
G|-1------2------------|---4--1--2---2--1--0--|
D|-----------------2---|----------------------|
A|-----------------2---|----------------------|
E|-----------------0---|----------------------|

Guitars 1,2
E|---------------------|----------------------|    2x
B|--6-------6--6-----3-|----------------------|
G|--5-------5--5-----2-|---2--0---0--2--------|
D|-------0--------0----|---0--0---0--0---2----|
A|---------------------|-----------------2----|
E|---------------------|-----------------0----|
         *        *

Guitars 1,2
E|-----0------0--------|----------------------|
B|---0------0----------|---3---------------1--|
G|-1------2------------|---4--1--2---2--1--0--|
D|-----------------2---|----------------------|
A|-----------------2---|----------------------|
E|-----------------0---|----------------------|

Guitars 1,2
E|---------------------|-----------------7----|
B|--6-------6--6-----3-|-----------------7----|
G|--5-------5--5-----2-|---2--0---0--2---4----|
D|-------0--------0----|---0--0---0--0---4----|
A|---------------------|----------------------|
E|---------------------|----------------------|
         *        *

Guitars 1,2         (Chorus)
E|-7-7-7-7-7-7-7-7-7-7-|-7-----------------------------|
B|-7-7-7-7-7-7-7-7-7-7-|-7-----0----------7--7---------|
G|-4-4-4-4-4-4-4-4-4-4-|-4--0--0--4-------7--8---------|
D|-4-4-4-4-4-4-4-4-4-4-|-4--0-----4--2-2---------------|
A|---------------------|-------------2-2---------------|
E|---------------------|-------------0-0-----------0---|
Tap to rate this tab
# A B C D E F G H I J K L M N O P Q R S T U V W X Y Z