Song name
# A B C D E F G H I J K L M N O P Q R S T U V W X Y Z

Kix - Cold Blood tab

---------------------------
--------------------------- with reverb
---------------------------
-4-4-4 -4-4-4 -4-4-4 -4-4-4
-4-4-4 -4-4-4 -4-4-4 -4-4-4
-2-2-2 -2-2-2 -2-2-2 -2-2-4


guitar 1
----------------------------------------------
----------------------------------------------
----------------------------------------------
-8-7-5-7-8 -8-8-7-5-7-8 -14-13-11-13----------
-8-7-5-7-8 -8-8-7-5-7-8 -14-13-11-13 -----12-9 ^
--------------------------------------12-9----
guitar 2+verse (they are the same thing)
----------------------
----------------------
----------------------
-4-4-4-4-4-4-9-7-4-4-4
-4-4-4-4-4-4-9-7-4-4-4
-2-2-2-2-2-2-7-5-2-2-2
pre-chorus
------------------
------------------
---8-6------------
-6-8-6------------
-6-6-4-2-4-2-4-4-2
-4----------------x2
chorus
----------------------
----------------------
---------8-6-8-8-8-8-8
-6-6-4-6-8-6-8-8-8-8-8
-6-6-4-6-6-6-6-6-6-6-6
-4-4-4-4--------------

I don't know the solo but it's really quite complex. Rock on dudes + long live rock n roll
Tap to rate this tab
# A B C D E F G H I J K L M N O P Q R S T U V W X Y Z