Song name
# A B C D E F G H I J K L M N O P Q R S T U V W X Y Z

Kiyoshi Ryujin - Send tab

Kiyoshi Ryujin (http://www.kiyoshiryujin.com/) - Send (Cyborg Girl OST)

** This is the tab and chord that i've done myself based on what i've heard from my ear only**
**I got the lyric from here - [http://www.youtube.com/watch?v=cTWMlcCeVo8]**
 **The intro part might be wrong but it is close to the original sound of the song (I'm 
lazy to correct it XD)**
**Any change or help on the song is appreciated and you can let me know by sending an 
to ketxorange@gmail.com :)**

[Intro]

------------------------------------------------------------0h1-------|
1-0-0h1-----0---0-0h1---1---1-------1-----------3---------------1-----|
--------2-2---2-------0---0-------2---2-------0---0-------0---------0-|
--------------------------------3-------3---0-------0---2---------2---|
------------------------3---3-0-----------2-----------2---------3-----|
----------------------------------------------------------------------|

----------------------------------------------------------------------|
------1-----------1-----1-----------1-1-------------------------------|
----2---2-------0-----0---0---0-----0-0-------------------------------|
--3-------3---0-----2-------2-----2-----------------------------------|
0-----------2-----3-------------3-------------------------------------|
----------------------------------------------------------------------|


[Chorus]
   C         G             Am
these star that doesn't lit
  F         G            C
i'll keep it burning hard
   Am             F
it'll burn, it'll fight
        G          C
you can't run inside
   F                          G       C
the world is sending it's soul to you


 F       G        Am
if you be the cloud
  F      G       C
i will be the land
 F              G      Am
tired of the world in you
F  G    C
so tired

[Chorus]

F       G        Am
i don't know anything
F      G       C
more ever do you
F              G          Am
but i think that like a star
F      G        C
you are wonderful

[Chorus]

         Am               F         G       C
i finally believe it's lit as i kept running
           Am         F    G        C
in the dark you saw me and the smile
          Am      F        G        C
after time i knew it was fate with you

[Chorus]
   F                          G       C
the world is sending it's soul to you
Tap to rate this tab
 
# A B C D E F G H I J K L M N O P Q R S T U V W X Y Z