Song name
# A B C D E F G H I J K L M N O P Q R S T U V W X Y Z

Kiz - Klopapier tab

Intro:
E|-----------------------------|
B|-----------------------------|
G|-----------------------------|
D|---12-12-12-10---------------| 2X
A|----------------13--10-------|
E|-----------------------------|

E|-----------------------------|
B|-----------------------------|
G|-----------------------------|
D|--10--10-12--10----------xxx-|
A|----------------13-10-10-xxx-|
E|-----------------------------|
Tap to rate this tab
# A B C D E F G H I J K L M N O P Q R S T U V W X Y Z