Song name
# A B C D E F G H I J K L M N O P Q R S T U V W X Y Z

Kiz - Klopapier tab

-------------------------------------------------------------------------------
                             KLOPAPIER - K.I.Z.
-------------------------------------------------------------------------------
Tabbed by: TimoderKing
E-mail:timo.lindmueller@web.de

Tuning:Standard E

Chorus Guitar 1
e|--------------------------------------------------------------------------|
B|--------------------------------------------------------------------------|
G|--------------------------------------------------------------------------|
D|--5-----------4-----------3-----------5-----------------------------------|
A|--5-----------4-----------3-----------5-----------------------------------|
E|--3-----------6-----------1-----------3-----------------------------------|


Chorus Guitar 2
e|--------------------------------------------------------------------------|
B|--------------------------------------------------------------------------|
G|------8----8----8----6---------------8----8----8----6---------------------|
D|---------------------------8----5------------------------8----5-----------|
A|--------------------------------------------------------------------------|
E|--------------------------------------------------------------------------|

e|--------------------------------------------------------------------------|
B|--------------------------------------------------------------------------|
G|------6----6----8----6----------------------------------------------------|
D|--------------------------8----8----8-------------------------------------|
A|--------------------------------------------------------------------------|
E|--------------------------------------------------------------------------|

Guitar 1 just plays the same thing all the time during the song. Guitar 2 just plays 
during the chorus twice.
Tap to rate this tab
# A B C D E F G H I J K L M N O P Q R S T U V W X Y Z