Song name
# A B C D E F G H I J K L M N O P Q R S T U V W X Y Z

Kiz - Neuruppin tab

-------------------------------------------------------------------------------
                             NEURUPPIN - K.I.Z.
-------------------------------------------------------------------------------
Tabbed by: Adrian Urban
Email: -

Tuning: Standard (EADGBe)

Tempo: ~160 BPM


Guitar 1 and guitar 2 play both riffs until the end:

Guitar 1:

     |----3----|    |----3----|       |----3----|    |----3----|     
     Q    Q    Q    Q    Q    Q       Q    Q    Q    Q    Q    Q     
E||-----------------0--------------|-----------------3--------------|
B||------------0---------0---------|--------------------------------|
G||-------0-------------------0----|------------4---------4---------|
D||--------------------------------|-------5-------------------5----|
A||--------------------------------|--------------------------------|
E||--0-----------------------------|--3-----------------------------|


  |----3----|    |----3----|       |-----3----|    |-----3----|      
  Q    Q    Q    Q    Q    Q       Q     Q    Q    Q    Q     Q      
-----------------5--------------|------------------8---------------||
--------------------------------|----------------------------------||
------------6---------6---------|-------------9---------9----------||
-------7-------------------7----|-------10-------------------10----||
--------------------------------|----------------------------------||
--5-----------------------------|--8-------------------------------||


For bar 2 to 4, you can start by using a barré GM chord and then
slide it up to the 5th fret (AM) and the 8th fret (CM)



-------------------------------------------------------------------------------

Guitar 2: Em G D F (with each one being played for one bar)
Tap to rate this tab
# A B C D E F G H I J K L M N O P Q R S T U V W X Y Z