Song name
# A B C D E F G H I J K L M N O P Q R S T U V W X Y Z

Kjon - On The Ocean tab

K'jon - On the Ocean
tabbed by gz35

This is my first tab so theres probably a lot of mistakes, just let me know
The chords are basically

Cmaj7		x35453
Amin		x02210
Dmin7		x57565
Gsus4		355533
G		355433

In the song, they basically finger pick down

	I
e|--------------------|
b|----5--5--5--5--5---|
g|-----4--4--4--4-----|
d|------5--5--5--5----|
a|---3----------------|
e|--------------------|

	II
e|----0--0--0--0--2---|
b|-----1--1--1--1-----|
g|------2--2--2--2----|
d|--------------------|
a|---0----------------|
e|--------------------|

	III
e|--------------------|
b|----6--6--6--6--6---|
g|-----5--5--5--5-----|
d|------7--7--7--7----|
a|---5----------------|
e|--------------------|

	IV
e|--------------------|
b|--------------------|
g|----5--5--5--5------|
d|-----5--5--5--5-----|
a|------5--5--5--5----|
e|---3----------------|

	V
e|--------------------|
b|--------------------|
g|----4--4--4--4------|
d|-----5--5--5--5-----|
a|------5--5--5--5----|
e|---3----------------|


	INTRO:

I I II II III III IV V

	VERSE 1:

I
Sometimes, it feels like

II
Everything, is passing me by

I
Every now and then it feels like

II
My ship has gone and sailed away

III
But I, I gotta be strong

IV
Gotta hold on

V
It wont be too long

	CHORUS:

I
Now the tide is coming near

I		II
I see the waves flowin'

II
Out there on the ocean

II
I know my ship is comin in

I
Just past the horizon

I			II
And right where the sky ends

II
Cause out there on the ocean

II			III
I know my ship is coming in

III
But don't leave me hanging

IV
I've been waiting too long

V				I
But this moment, my ship has finally come


	VERSE 2: repeat chords from verse 1


	CHORUS


	BRIDGE:

I
Finally you come

II
Around, around

I
I said finally baby

I
Finally you come

II
Around, around


CHORUS
Tap to rate this tab
# A B C D E F G H I J K L M N O P Q R S T U V W X Y Z