Song name
# A B C D E F G H I J K L M N O P Q R S T U V W X Y Z

Kjwan - Pause tab

|-----------------------------------------------------------------|
|-----------------------------------------------------------------|
|-------4433------4433----4433----4433----4433----4433--444443333-|2x
|-------------------------------------------------------444444444-|
|----22--------22-------44------44------66------66------222222222-|
|--00--------00-------22------22------44------44------------------|

|-------------------------------------|
|-------------------------------------|
|-11111111-------------------44444444-|2x
|-22222222-44444444-66666666-44444444-|
|-22222222-44444444-66666666-22222222-|
|-00000000-22222222-44444444----------|

|--------------------------------------------|
|--------------------------------------------|
|-11111111-----------------------------------|
|-22222222-44444444-66666666-44444444--------|
|-22222222-44444444-66666666-44444444--------|
|-00000000-22222222-44444444-22222222--------|

|------------------------------------------------|
|------------------------------------------------|
|-4\666\4b~-4\666\4b~-4\666\8-4\666\4b~----------|
|------------------------------------------------|
|-2\444\2b~-2\444\2b~-2\444\6-2\444\2b~----------|
|------------------------------------------------|

|---------------------------|
|---------------------------|
|-1---------------------4---|
|-2--------4-----6-------4--|
|-2--------4-----6-----2----|
|-0--------2-----4----------|

|-----------------------------------------------------------------|
|-----------------------------------------------------------------|
|-------4433------4433----4433----4433----4433----4433--444443333-|
|-------------------------------------------------------444444444-|
|----22--------22-------44------44------66------66------222222222-|
|--00--------00-------22------22------44------44------------------|

|-------------------------------------|
|-------------------------------------|
|-11111111-------------------44444444-|2x
|-22222222-44444444-66666666-44444444-|
|-22222222-44444444-66666666-22222222-|
|-00000000-22222222-44444444----------|

|--------------------------------------------|
|--------------------------------------------|
|-11111111-----------------------------------|
|-22222222-44444444-66666666-44444444--------|
|-22222222-44444444-66666666-44444444--------|
|-00000000-22222222-44444444-22222222--------|
2:32
|-------------------------------------|
|-------------------------------------|
|-11111111-------------------44444444-|
|-22222222-44444444-66666666-44444444-|
|-22222222-44444444-66666666-22222222-|
|-00000000-22222222-44444444----------|

|-14b~12111211b------------------------14b~12111211b-----------------------------------|
|-------------14-12b~-------------------------------14-12b~----------------------------|
|---------------------3^4-3^4-3^4-3^4-----------------------3^4-3^4--------/6b~--------|
|--------------------------------------------------------------------------------------|
|--------------------------------------------------------------------------------------|
|--------------------------------------------------------------------------------------|


|----------------------|
|----------------------|
|-4\6666\8-4\6666\4b~--|
|----------------------|
|-2\4444\6-2\4444\2b~--|
|----------------------|

|-14b~12111211b~--------------------------------|
|---------------14-12b~-------------------------|
|-----------------------3^4-3^4-3^4-3^4---------|
|-----------------------------------------------|
|-----------------------------------------------|
|-----------------------------------------------|


|-------------------------------------|
|-------------------------------------|
|-11111111-------------------44444444-|
|-22222222-44444444-66666666-44444444-|
|-22222222-44444444-66666666-22222222-|
|-00000000-22222222-44444444----------|
Tap to rate this tab
 
# A B C D E F G H I J K L M N O P Q R S T U V W X Y Z