Kjwan - Daliri tab

Guys! Here is my version of "DALIRI". I hope you'd like it and even if you didn't,
anyway i don't really know the exact notes on the wahwah part so i wouldn't put it
here but just wait for it, i'm still working on it..
   * This song's a little tricky but if you'll just listen more closely you'll
find it easy except of course w/ the first lead part(well for me its hard).

Song Title:   Daliri
Artist:       Kjwan
Tabbed by:    Amir Alejandro (hubby_ni_chic2x@yahoo.com) FB/Ym
Tuning:       Drop D
Legend:       ~  - let ring
              b  - bend
              /\ - slides
              .  - palm mutes
              h  - hammer
              () - ghost note
              ^  - pitch harmonic bend
Intro:
]------------------------------|
]------------------------------|
]------------------------------|
]-0-3-4-3b--------0h3-3-5-3-0~-|
]-0-3-4---5-0h3h5-0h3-3-5-3-0~-|
]-0-3-4-----------0h3-3-5-3-0~-|

]--------------------------------|--------|
]--------------------------------|--------|
]--------------------------------|--------|
]-0-3-4-5b-3------0h3-3-5-3-0~---|-x-3-/9-|
]-0-3-4-----0h3h5-0h3-3-5-3-0~---|-x-3-/9-|
]-0-3-4-----------0h3-3-5-3-0~---|-x-3-/9-|
                                 | theres a little sound like this before he
                                 | he sings... just listen and youll get it
Verse:
marami ang..
]-------------------|-------------------|
]-------------------|-------------------|
]-------------------|-------------------|
]-------------------|-0-3---------------|
]------3h5------3h5-|-0-3-3h5-----3h5---|
]-0-3h5----0-3h5----|-0-3----0-3h5------|
  . ...... . ......          . ......
]-------------------|------------------------------|
]-------------------|------------------------------|
]-------------------|------------------------------|
]-------------------|------------------------------|
]------3h5------3h5-|------3h5------3h5-(6b4b)-----| this part theres a little
]-0-3h5----0-3h5----|-0-3h5----0-3h5---------------|     pitch harmonic bend just a
  . ...... . ......   . ...... . ......                   little one

ang init..
]-------------------|-------------------|
]-------------------|-------------------|
]-------------------|-------------------|
]-------------------|-------------------|
]------3h5------3h5-|------3h5------3h5-|
]-0-3h5----0-3h5----|-0-3h5----0-3h5----|
  . ...... . ......   . ...... . ......
]-------------------|----------------------|
]-------------------|----------------------|
]-------------------|----------------------|
]-------------------|---33h5-7~------------|
]------3h5------3h5-|---33h5-7~------------|
]-0-3h5----0-3h5----|-0-33h5-7~------------| listen closely i think it he did
                                            a little bend after,maybe a
                                              half bend
Chorus:
]-----------------|----------------|
]-----------------|----------------|
]-----------------|----------------|
]-5~--3--0-3h5-0--|-5~--3--0-3h5-0-|
]-5~--3--0-3h5-0--|-5~--3--0-3h5-0-|
]-5~--3--0-3h5-0--|-5~--3--0-3h5-0-|
(repeat intro after this listen to the song so you won't be confused)
Verse2:
kung minsan..
]-------------------|-------------------|
]-------------------|-------------------|
]-------------------|-------------------|
]-------------------|-------------------|
]------3h5------3h5-|------3h5------3h5-|
]-0-3h5----0-3h5----|-0-3h5----0-3h5----|
  . ...... . ......   . ...... . ......
]-------------------|------------------------|
]-------------------|------------------------|
]-------------------|------------------------|
]-------------------|---33h5------3b-5-3-----|
]------3h5------3h5-|---33h5-0-3-5------5b---|
]-0-3h5----0-3h5----|-0-33h5-----------------|
  . ...... . ......          .
saan ka..
]-------------------|-------------------|
]-------------------|-------------------|
]-------------------|-------------------|
]-------------------|-0-3---------------|
]------3h5------3h5-|-0-3-3h5-----3h5---|
]-0-3h5----0-3h5----|-0-3----0-3h5------|
  . ...... . ......          . ......

kailan ako..
]-------------------|-------------------|
]-------------------|-------------------|
]-------------------|-------------------|
]-------------------|-------------------|
]------3h5------3h5-|------3h5------3h5-|
]-0-3h5----0-3h5----|-0-3h5----0-3h5----|
  . ...... . ......   . ...... . ......

nawawala ang alaala nwawala ang sakit..
]-------------------|-------------------|
]-------------------|-------------------|
]-------------------|-------------------|
]-------------------|---33h5-7~---------|
]------3h5------3h5-|---33h5-7~---------|
]-0-3h5----0-3h5----|-0-33h5-7~---------|
(Repeat Chorus 2x)
(theres a slide between the 2 chorus)
(then the rolling of the drum and the wahwah part.)
(i dont really know how to do it and i dont want to be cursed if i made it wrong
so what im going to do is repost this tab after i finished tabbing this part of the song)

**Repeat Verse after the wahwah part..
**Actually the verses are like the same and theres a certain pattern..
**Listen to the song so you can learn the pattern yourself..

2nd lead ->not 100%accurate, quite difficult to write and explain
->pretty easy pero kelangan lng tlga ng tyaga at pandinig! marami kaseng sundot sundot ehh
HA HA HA!
]-------------------|     ---------------------|
]-------------(8~)--|     ---------------(6~)--|
]----7-9-7-5-7-8b---|YEAH!----7-9-7-5-7/9-6b---|
]-7-9---------------|     -7-9-----------------|
]-------------------|     ---------------------|
]-------------------|     ---------------------|

]-------------------|-10-8-10b~~------------------------------------|
]------------(7~)---|------------9-7h9----------7b~-----------------|
]----7-9-7-5-77~----|-----------------9-7h9-9-7---------------------|
]-7-9---------------|-----------------------------------------------|
]-------------------|-----------------------------------------------|
]-------------------|-----------------------------------------------|

]-------------------|-----------------------------------------------|
]-------------(9~)--|------------(7~)-------------------------------|
]----7-9-7-5b-99~---|----7-9-7-5--7^-5--8-6-------------------------|
]-7-9---------------|-7-9------------------8-7b~--9-7---------------|
]-------------------|--------------------------------9-7--6-4---5---|
]-------------------|----------------------------------------6-4-4--|

BASTUSAN NA!!
]------------------------------------------8-6h8~-------------------|
]-------------------------------------------------------------------|
]-------------------------------------------------------------------|
]-0h3-3h5--0h3-3h5-xxxxxxx-0h3-3h5-xxxxxxx--------------------------|
]-0h3-3h5--0h3-3h5-xxxxxxx-0h3-3h5-xxxxxxx--------------------------|
]-0h3-3h5--0h3-3h5-xxxxxxx-0h3-3h5-xxxxxxx--------------------------|

]-------------------------------------------------------------------|
]----------------------------------5-3------------------------------|
]-------------------------------------5-3---------------------------|
]-0h3-3h5--0h3-3h5-xxxxxxx-0h3-3h5-------6-4------------------------|
]-0h3-3h5--0h3-3h5-xxxxxxx-0h3-3h5----------7-5---------------------|
]-0h3-3h5--0h3-3h5-xxxxxxx-0h3-3h5-------------8-7b~~~~-bb----------|



END!! POTAH NAKAKAPAGOD!!! HAAHA message me at facebook if may tanong kayu!!
MABUHAY ANG PINOY ROCK!
Tap to rate this tab
 
# A B C D E F G H I J K L M N O P Q R S T U V W X Y Z