Song name
# A B C D E F G H I J K L M N O P Q R S T U V W X Y Z

Kjwan - Daliri tab

Song: Daliri
Artist/Band: Kjwan
Album: Kjwan
Submitted by: bogey
Tuning: Drop D

Intro:

E|--------------------------------------------------------------------|
B|--------------------------------------------------------------------|
G|--------------------------------------------------------------------|
D|--------3-------------------------------5h6p5-0---------------------|
A|--0-3-5---5--3h5-0-3-5-----------0-3-5---------3h5---0-3-5---------|
D|-------------------------5-3-0------------------------------5-3-0---|

E|----------------|
B|----------------|
G|----------------|
D|---0-3h5p3-0----|
A|----------------|
D|----------------|

Verse:

E|--------------------------------------------------|
B|--------------------------------------------------|
G|--------------------------------------------------|
D|--------------------------------------------------|
A|---0-3-0-3h5-0-3-0-3h5---0-3-0-3h5-0-3-0-3h5----| 8x
D|--------------------------------------------------|

E|----------------|
B|----------------|
G|----------------|
D|---0-3h5p3-0----|
A|----------------|
D|----------------|

E|--------------------------------------------------|
B|--------------------------------------------------|
G|--------------------------------------------------|
D|--------------------------------------------------|
A|---0-3-0-3h5-0-3-0-3h5---0-3-0-3h5-0-3-0-3h5----| 8x
D|--------------------------------------------------|

Chorus: 

E|--------------------------------------|
B|--------------------------------------|
G|--------------------------------------|
D|---5---3-------------5---3------------| 2x
A|---5---3---0-3h5-----5---3---0-3h5----|
D|---5---3------------5---3-----------|
   
Verse 2: (repeat verse 1 tabs)

Repeat chorus

Adlib: (guitar 2)

E|--------------------------------------------------|
B|--------------------------------------------------|
G|--------------------------------------------------|
D|--------------------------------------------------|
A|---0-3-0-3h5-0-3-0-3h5---0-3-0-3h5-0-3-0-3h5----| 16x
D|--------------------------------------------------|

Repeat chorus

Outro: (guitar 2)

E|--------------------------------------------------|
B|--------------------------------------------------|
G|--------------------------------------------------|
D|--------------------------------------------------|
A|---0-3-0-3h5-0-3-0-3h5---0-3-0-3h5-0-3-0-3h5----| 8x
D|--------------------------------------------------|

E|----------------|
B|----------------|
G|----------------|
D|---0-3h5p3-0----|
A|----------------|
D|----------------|

E|--------------------------------------------------|
B|--------------------------------------------------|
G|--------------------------------------------------|
D|--------------------------------------------------|
A|---0-3-0-3h5-0-3-0-3h5---0-3-0-3h5-0-3-0-3h5----| 8x
D|--------------------------------------------------|

E|--------------------------------------------------|
B|--------------------------------------------------|
G|--------------------------------------------------|
D|--------------------------------------------------|
A|---0-3-0-3h5-0-3-0-3h5---0-3-0-3h5-0-3-0-3h5----| 16x
D|--------------------------------------------------|



Tama 'yan, kaya paki-rate na lang...
Tap to rate this tab
# A B C D E F G H I J K L M N O P Q R S T U V W X Y Z