Guitaretab - guitar tabs
Song name
# A B C D E F G H I J K L M N O P Q R S T U V W X Y Z
Home / K / Kjwan / Surface tab

Kjwan - Surface tab

Surface by Five Times August
Tabbed by Sean
Standard Tuning
Capo on Fret 1

Intro/Outro

2-----------4-----------0--------------------------------|
3-----------0-----------3----------0-0/2-2-2-2-2/0-------|
2---------1-------------2--------2-----------------2-----|
0-------2-------------0--------2-------------------------|
--------------------2--------0---------------------------|
---------------------------------------------------------|

Verse(s)/Chorus/Rest of Song (Listen to Song for Strumming Patterns)

2-----------4-----------0--------------------------------|
3-----------0-----------3------------2-------------------|
2-----------1-----------2------------2-------------------|
0-----------2-----------0------------2-------------------|
------------------------2------------0-------------------|
---------------------------------------------------------|

You could be the big mistake I make
But thatís the chance Iím willing to take
I need to know
Cause, Lord, Iím so alone

Afraid to fall, but all in all
The lessons learned have made me tall
And now Iím getting close
To what I want the most
[ Tab from: http://www.guitaretab.com/k/kjwan/58229.html ]
And I do
Iím taking each breath to make each step to you
Iím holding on tight to keep things mine
And ooh, Baby I need to find truth
So letís move and get to know the girl I never knew

Four years searching, not a scratch on the surface
Giving my time but love is just a circus
And Iím caught in the ring
Just looking at everything
ĎCause youíre somewhere here
Youíre somewhere there
Youíre playing these tricks and itís not fair
But Iím gonna get you soon
Thereís only so much room

And I do
Iím taking each breath to make each step to you
Iím holding on tight to keep things mine
And ooh, Baby I need to find truth
So letís move and get to know the girl I never knew

Maybe I need to lose
Everything that Iím used to
Maybe I need to lose
Everything that I used from you
Maybe I need to lose
Everything that Iím used to
Maybe I need to lose
Everything that I used from you

And I do
Iím taking each breath to make each step to you
Iím holding on tight to keep things mine
And ooh, Baby I need to find truth
So letís move and get to know the girl I never knew

You could be the big mistake I make
But thatís the chance Iím willing to take
I need to know
Cause, Lord, Iím so alone
Related for Surface tab