Song name
# A B C D E F G H I J K L M N O P Q R S T U V W X Y Z

Kjwan - Daan tab

Song      : Daan
Band      : Kjwan
Tabbed By : Brandon Philip Llapitan
Email add : brandon_rakista@yahoo.com
Tuning    : Drop Db
Date      : 3/26/07


Note : may guitar 2 to pero d q na nlgay kc mhrap gmwa na tab e.. pero ok n rn to 95%  
       pnkaaccurate na tab ng kantan to. 
  

Intro : 

eb-----------------------------------------------------------|
Bb-7h8-7-----------------------------------------------------| 
Gb-------7h9-------------------------------------------------|
Db------------2-------5-------4--------7--------5---------2~-|
Ab------------2-------3-------2--------7--------5---------2~-|
Db------------2------------------------7--------5---------2~-|  
             |-----------------------------------|

eb---------------------------------------------------------------------------------------------| 
Bb---------------------------------------------------------------------------------------------| 
Gb----4/5-0h2-----4/5-0h2-----4/5-0h2-----4/5-0-7~---------------12~---------------------------|
Db-2-----------2----------0-2---------0-2-----------------7-9-10-----------------7-----5-----2~|
Ab-------------------------------------------------7-9-10------------10----9-----7-----5-----2~|
Db-------------------------------------------------------------------10----9-----7-----5-----2~|
                                                                    |-------------------|


Verse:
      
eb-------------------------------------| 
Bb-------------------------------------| 
Gb-------------------------------------|
Db------5~-----4~-----7------5------2~-|
Ab------3~-----2~-----7------5------2~-|
Db--------------------7------5------2~-| 
      
eb-------------------------------------| 
Bb-------------------------------------| 
Gb-------------------------------------|
Db------5------4------7------5------2~-|
Ab------3------2------7------5------2~-|
Db--------------------7------5------2~-| 
       |----------------------|

    
Chorus : 
  
  Sa...na...    
eb------------------------------------------------| 
Bb------------------------------------------------|
Gb----------------5-55-5/7--99~-------------------|2x
Db-2---4----5---7-x-xx-x-x--xx~------7----5----2~-|
Ab-2---4----5---7-3-33-3/5--77~--9---7----5----2~-|
Db-2---4----5---7----------------9---7----5----2~-|
  |--------------|              |----------| 


Intro 2 :

eb---------------------------------------------------------------------------------------------| 
Bb---------------------------------------------------------------------------------------------| 
Gb----4/5-0h2-----4/5-0h2-----4/5-0h2-----4/5-0-7~---------------12~---------------------------|
Db-2-----------2----------0-2---------0-2-----------------7-9-10-----------------7-----5-----2~|
Ab-------------------------------------------------7-9-10------------10----9-----7-----5-----2~|
Db-------------------------------------------------------------------10----9-----7-----5-----2~|
                                                                    |-------------------|

[Repeat verse]
[Repeat chorus]


Bridge : 
eb----|----------------------------------------------------------------------|
Bb----|----------------------------------------------------------------------|  
Gb----|-------------------------------------------then-----------------------|
Db-2~-|-----------------2p0---------2p0---------------------2p0--------------|
Ab-2~-|---////xxxx----------7\5---------7\5-2-------------------7\5----------|
Db-2~-|---////xxxx--2-2---------2-2-----------2--------2-2----------2(pause)-|
                      .           .                     .
                     |-----------11x------------|      


Chorus 2:

eb------------------------------------------------------------|
Bb------------------------------------------------------------|
Gb------------------------------5-55-5/7--99~-----------------|
Db-2----7----6----0--5--4--2--0-x-xx-x----xx~------7---5---2~-|
Ab-2----5----4----0--5--4--2--0-3-33-3/5--77~--9---7---5---2~-|
Db-2--------------0--5--4--2--0----------------9---7---5---2~-|
  |-----------|   .                           |---------|

eb-------------------------------------------------------------|
Bb-------------------------------------------------------------|
Gb-------------------------------5-55-5/7--99~-----------------|
Db-2----7----6----0--5---------0-x-xx-x----xx~------7---5---2~-|
Ab-2----5----4----0--5-[pause]-0-3-33-3/5--77~--9---7---5---2~-|
Db-2--------------0--5---------0----------------9---7---5---2~-|
  |-----------|   .                           |---------|


Outro : 
eb---------------|
Bb---------------|
Gb---------------|4x
Db-2-22-22-22-22-|
Ab-2-22-22-22-22-|
Db-2-22-22-22-22-|   


Legend : 

|---|    = listen to the song for the strumming
  h      = hammer
  p      = pull
  ~      = vibrato
  /      = slide
  x      = muted note
  .      = palm mute


Lyrics 

Verse:

Tumawag walang taong 
Sumasagot sa kailangan mo
Inakit ng isang sugo
Na magpapatawad sa kasalanan mo

Chorus : 

Sana mag-iisang magliligtas sa’yo 
Ito na lamang panalangin ko
Sana malaman mo ang tunay na sagot
Mula sa’yo ang hinahanap mo

Verse 2:

Sumama sa mga taong 
Lahat sila ay mga katulad mo
Inutos ng inyong sugo
Lahat kayo’y kailangang mapaos
Tap to rate this tab
 
# A B C D E F G H I J K L M N O P Q R S T U V W X Y Z