Song name
# A B C D E F G H I J K L M N O P Q R S T U V W X Y Z

Kjwan - Shai tab

I believe this is correct. Thanks! :)

INTRO

e|-8-------------------------------------------------------------------------|
B|----11---8---8---8---11---8---8---8---8---8--------------------------------|
G|-------------------------------------------------2X------------------------|
D|---------------------------------------------------------------------------|
A|---------------------------------------------------------------------------|
E|---------------------------------------------------------------------------|

e|-8--------------8--------------8--------------8----------------------------|
B|----8---11---8-----8---11---8-----8---11---8-------------------------------|
G|-----------------------------------------------------2X--------------------|
D|---------------------------------------------------------------------------|
A|---------------------------------------------------------------------------|
E|---------------------------------------------------------------------------|

Tap to rate this tab
# A B C D E F G H I J K L M N O P Q R S T U V W X Y Z