Song name
# A B C D E F G H I J K L M N O P Q R S T U V W X Y Z

Kk - Khuda Jaane tab

=================================================

Song: Khuda Jaaney
Movie: Bachna Ae Hanseeno
Artist: K. K. & Shilpa Rao
Composer: Vishal-Shekhar
Tuning: Standard

=================================================
=	Capo on 6th fret!			=
=	tabs are relative to the capo.		=
=================================================


Use a capo on the 6TH FRET, the song is pretty simple to play and sounds good too :)


e|--------------------------------------------------|
B|--------------------------------------------------|
G|-----------------------------------------4--------|
D|----0-----------0-----------0----------2----------|		X4  ...
A|--2-----------2-----------2----------2------------|
E|0-----3-2---0-----3-2---0-----3-2--0--------------|

_____________________________________________________
e|--------------------------------------------------||
B|------------------------------------0-------------||
G|--------------0-------------------2---0-2---0-----||
D|2---2-------0---4---4--------0-2----------4---2---||
A|--2---2-0-2-------2---2--0-2----------------------||
E|--------------------------------------------------||
                                                     |
e|--------------------------------------------------||
B|--------------------------------------------------||
G|--------------------------------------------------||	X2  ...
D|--0---0---0---2-0-----0---0---0---2-0-------------||
A|2---2---2-----------0---0---0---------------------||
E|--------------------------------------------------||
                                                     |
e|--------------------------------------------------||
B|--------------------------------------------------||
G|--------------------------------------------------||
D|--0---0-------------------------------------------||
A|4---4---4--0-4-2-2--------------------------------||
E|--------------------------------------------------||
_____________________________________________________|

e|--------------------------------------------------|
B|----0-3-2-----------------------------------------|
G|--0-------2----2--0--4--0-------------------------|
D|2-------------------------------------------------|
A|--------------------------------------------------|
E|--------------------------------------------------|


e|--------------------------------------------------|
B|----0-3-2-----------------------------------------|
G|--0-------2----2--0--4----------------------------|
D|2-------------------------------------------------|
A|--------------------------------------------------|
E|--------------------------------------------------|

e|--------------------------------------------------|
B|----0-3-2-----------------------------------------|
G|--0-------2----------0----0---0---0---------------|
D|2--------------4-2-4--------4---4---4---0-4-2-2---|
A|--------------------------------------------------|
E|--------------------------------------------------|


Figure out the rest of the pattern and the timing yourself... Its a combination of the 
tabs,just put in different patterns...

Have fun playing the song :D !!
Tap to rate this tab
# A B C D E F G H I J K L M N O P Q R S T U V W X Y Z