Song name
# A B C D E F G H I J K L M N O P Q R S T U V W X Y Z

Kk - Mera Phela Phela Pyaar chords

Highlighted       Show chord diagrams
Mera Pehla Pehla Pyaar By KK Guitar Chords

D………………
Na jaane kab yeh hua
... ..A………
Na kisi ko khabar

Na khud ko pata
Bm…….
Khoye khoye rehte
… … .A……
Hum yahan hai
D……
Silsilo ka silsila hai
..A………….
Hua shuru abb jo nikle bhi jaan
Bm.. .. … … … …….A….
Abb se humraahi chahton ke
…D…………….
Yeh jaise pehla nasha.
……..A…………Bm……..
Woh pehli nazar phela gumaar
Bm……………………..A….
Kyun lage mohabbat hi jahan hai
D…………………..A………….
Doston ki dosti yaaron ki yaari kam lagne lagi
Bm………………………..A…………..A……
Behke hai hum behka yeh sama hai

{Let “A” Sustain.}

Chorus:

Kaise samjhaau tumjhe
……..D……………………
Mera pehla pehla pyaar hai yeh
A……Bm….
Whoa..oh..oh…oh..
……D……..
Aankhon mein aitbaar hai yeh
A……Bm….
Whoa..oh..oh…oh..


…….D….
Mera pehla pehla pyaar hai yeh
A……Bm…..
Whoa..oh..oh…oh..
…….D…..
Aankhon mein aitbaar hai yeh
A…….Bm….
Whoa..oh..oh…oh..


Interlude : {Acoustic Guitar}


e |-------------------------------------|
B |-------------------------------------|
G |-------------------------------------|
D |-5/7--7-7----7-7--7/9--7-7-----------|
A |-------------------------------------|
E |-------------------------------------|

e |-------------------------------------|
B |-------------------------------------|
G |-------------------------------------|
D |--5-7--9-9/(10)-9--7-5/7-7-----------|
A |-------------------------------------|
E |-------------------------------------|

e |--------------------------------------|
B |------------------------8-------------|
G |---------------------------7----------|
D |-5/7-7-7/9-9-9--9---------------------|
A |--------------------------------------|
E |--------------------------------------|

e |--------------------------------------|
B |------------------------7-------------|
G |--------------------------7-----------|
D |-5/7-7-7-7--7-7--7--------------------|
A |--------------------------------------|
E |--------------------------------------|

Solo : {Overdriven Electric Guitar}


e |-------------------------------------12^---|
B |-------------------------10/12-10----------|
G |---------7---9-11-12-----------------------|
D |--7--9-------------------------------------|
A |-------------------------------------------|
E |-------------------------------------------|


e |--12^-^-^----10-10—9^---5-5-7^---------|
B |---------------------------------------|
G |---------------------------------------|
D |---------------------------------------|
A |---------------------------------------|
E |---------------------------------------|


e |--------------------------------------|
B |--------------------------------------|
G |--------------------------------------|
D |5/7-7-7/9-9-9/12-12--5-5-7-7/9-7-7----|
A |--------------------------------------|
E |--------------------------------------|


e |---------------------------------------|
B |---------------------------------------|
G |---------------------------------------|
D |-7\5\4--5-4/5—7/9-7--------------------|
A |---------------------------------------|
E |---------------------------------------|


e |---------------------------------------|
B |---------------------------------------|
G |---------------------------------------|
D |--5/7-4-5-4-5-4~-----------------------|
A |---------------------------5~~~--------|
E |---------------------------------------|


Verse 2:

D………
Hawa bhi mili thi humein
…..A……..
Jhokon mein pooch rahi thi
Bm………………………..A…..
Pyaar yeh agar nahi to phir kya hai

D……………………...A……….Bm…
Aye aasmaan tu bhi aajkal sang chalta hai
G…………………A……
Saaath leke chanda taare ..

{Let “A” Sustain.}

Chorus:

Kaise samjhaau tumjhe
……..D……………………
Mera pehla pehla pyaar hai yeh
A……Bm….
Whoa..oh..oh…oh..
……D……..
Aankhon mein aitbaar hai yeh
A……Bm….
Whoa..oh..oh…oh..


…….D….
Mera pehla pehla pyaar hai yeh
A……Bm…..
Whoa..oh..oh…oh..
…….D…..
Aankhon mein aitbaar hai yeh
A…….Bm….
Whoa..oh..oh…oh..
Tap to rate this tab
# A B C D E F G H I J K L M N O P Q R S T U V W X Y Z