Song name
# A B C D E F G H I J K L M N O P Q R S T U V W X Y Z

Kla Project - Semoga tab

            Kla Project - Semoga                                     


[INTRO]                   
     W                                                W                 
E||------------------------------------------------|-------------------|
B||------------------------------------------------|-------------------|
G||------------------------------------------------|-------------------|
D||------------------------------------------------|-------------------|
A||------------------------------------------------|-------------------|
E||------------------------------------------------|-------------------|


  S S S S S S S S S S S E  S S S    S S S S S S S S S S S S S S S S  
---------------------------------|----------------------------------|
---------------------------------|----------------------------------|
---------------------------------|----------------------------------|
------2-0-----2-------2-0----2---|------2-0-----2-------2-0-----2---|
--3---------3---3-3------------3-|----0-----0-3---3-0-3-----0-3---3-|
----3-----3---------3------3-----|--1-------------------------------|


  S S S S S S S S S S S S S S S S    S S S S S S S S S S S S S S S S  
----------------------------------|----------------------------------|
----------------------------------|----------------------------------|
----------------------------------|----------------------------------|
------2-0-----2-------2-0-----2---|------2-0-----2-------2-0-----2---|
--3---------3---3---3-------3---3-|----0-----0-3---3-0-3-----0-3---3-|
----3-----3-------3-------3-------|--1-------------------------------|


  S S S S S S S S S S S S S S S S    S S S S S S S S S S S S S S S S  
----------------------------------|----------------------------------|
----------------------------------|----------------------------------|
----------------------------------|----------------------------------|
------2-0-----2-------2-0-----2---|------2-0-----2-------2-0-----2---|
--3---------3---3---3-------3---3-|----0-----0-3-6-3-0-3-----0-3---3-|
----3-----3-------3-------3-------|--1-------------------------------|


  S S S S S S S S S S S S S S S S    S S S S S S S S S S S S S S S S  
----------------------------------|----------------------------------|
----------------------------------|----------------------------------|
----------------------------------|----------------------------------|
------2-0-----2-------2-0-----2---|--3---2-0-----2-0-----2-0-----2---|
--3---------3---3---3-----0-3---3-|----0-----0-3-----0-3-----0-3-----|
----3-----3-------3---------------|--1-----------------------------3-|


  S S S S S S S S S S S S S S S S    S S S S S S S S S S S S S S S S  
----------------------------------|----------------------------------|
----------------------------------|----------------------------------|
----------------------------------|----------------------------------|
------2-0-----2-0-----2-0-----2---|------2-0-----2-------2-0-----2---|
--3---------3-------3-------3---3-|----0-----0-3---3-0-3-----0-3---3-|
--8-3-----3-------3-------3-------|--1-------------------------------|


  T T S S S S S S S S S S S S S S S    S S S S S S S S S S S S S S S S  
------------------------------------|----------------------------------|
------------------------------------|----------------------------------|
------------------------------------|----------------------------------|
--------2-0-----2-------2-0-----2---|------2-0-----2-------2-0-----2---|
--3-----------3-6-3-0-3-------3---3-|----0-----0-3---3-0-3-----0-3---3-|
------3-----3---------------3-------|--1-------------------------------|


  S S S S S S S S S S S S S S S S    S S S S S S S E  S S S S S S S  
----------------------------------|---------------------------------|
----------------------------------|---------------------------------|
----------------------------------|---------------------------------|
------2-0-----2-0-----2-------2---|------2-0-----2------2-0-----2---|
--3---3-----3-----3-----3---3---3-|----0-----0-3---3--0-----0-3---2-|
----3-----3---------3-----3-8-----|--1------------------------------|


  S S S S S S S S S S S S S S S S    S S S S S S S E.  E  E  S. T  
----------------------------------|-------------------------------|
----------------------------------|-------------------------------|
----------------------------------|--------0-------0--------------|
------2-0-----2-0-----2-----0-2---|-----------------------0-------|
------------2-----0-2---0-2-----0-|----2-0---0-2-0----------------|
--3-3-----3-----------------------|--3-----------------3-----3----|


Do = C

Intro : F - C - Dm - Am - G - F --- G

C                  Em\B
Merenungkanmu kini
        F              C
menggugah haruku
     F              C
berbagai kenangan berganti
    D                   G
masa yang t'lah lalu
F                G
sebenarnya ku ingin
       Em            Am    G       F
menggali hasrat untuk kembali

C               Em\B
Melukiskanmu lagi
    F                C
di dalam benakku
     F              C
perlahan terbayang pasti
 D              G
garis wajahmu
F                    G
kehangatan cinta kasih
    Em            Am    G  F
dapat kubaca jelas di situ


      C         Em\B    
Adakah waktu   
Am             Em
mendewasakan kita
F               C
kuharap masih ada
Dm7     G
hati bicara
            C       Em\B    
Mungkinkah saja 
Am         Em
terurai satu persatu
F               C
pertikaian yang dulu
Dm7         G
bagai pintaku
        F
semoga

F - C - Dm - Am - G - F --- G

Ab
Lihatlah ku disini
Bb                 Eb
memendam rindu
Ab         Bb
setiap kuberseru
           Fm                      G
yang kusebut hanya namamu

back to reff

Em             Am
Sebenarnya kuingin
Em             Am
menggali hasrat kembali
Em          Am      G       F
kuharap agar kau mengerti
        C
semoga



Tap to rate this tab
# A B C D E F G H I J K L M N O P Q R S T U V W X Y Z