Song name
# A B C D E F G H I J K L M N O P Q R S T U V W X Y Z

Klaatu - Anus Of Uranus tab

-------------------------------------------------------------------------------
			     Anus Of Uranus - Klaatu
album: 3:47EST (1976)
guitarist: Dee Long
-------------------------------------------------------------------------------
Tabbed by: Lord Zortotron (and edited about 10h after submitting it the first time)
Email: plaidman99@hotmail.com

Tuning: the usual


Riff 1
e|-3-3-3-3-3-3--------3-3-3-3-3-3--------3-3-3-3-3-3----------------------------|
B|-3-3-3-3-3-3--------3-3-3-3-3-3--------3-3-3-3-3-3----------------------------|
G|-0-0-0-0-0-0--------0-0-0-0-0-0--------0-0-0-0-0-0----------------------------|
D|-------------2-3-4---------------2-3-4--------------2-3-4---------------------|
A|------------------------------------------------------------------------------|
E|------------------------------------------------------------------------------|

e|-----------------------------------------------------------------------------|
B|-----------------------------------------------------------------------------|
G|-3p2p0--3p2p0----------------------------------------------------------------|
D|---------------0h2p0---------------------------------------------------------|
A|----------------------0h2p0--------------------------------------------------|
E|-----------------------------------------------------------------------------|

Riff 2
e|---------------------------------------------------------------------------------|
B|---------------------------------------------------------------------------------|
G|-----------------------------------------------------------3p2p0-2-------0-------|
D|--------------------------------------------------------------------3----0-------|
A|-------------------------------------------------------------------------2-------|
E|-3-3-3-3-3-3-0-1-2--3-3-3-3-3-3-0-1-2--3-3-3-3-3-0-1-2-------------------3-------|
   P.M.----------------------------------------------------------------------------|

Riff 3
e|---------------------------------------------------------------------------------|
B|---------------------------------------------------------------------------------|
G|---------------------------------------------------------------------------------|
D|---------------------------------------------------------------------------------|
A|---------------------------------------------------------------------------------|
E|-3-3-3-3-3-3-0-1-2--3-3-3-3-3-3-0-1-2--3-3-3-3-3-0-1-2--3-3-3-3-3-3-0-1-2--------|
   P.M.____________________________________________________________________________________

e|---------------------------------------------------------------------------------|
B|---------------------------------------------------------------------------------|
G|---------------------------------------------------------------------------------|
D|---------------------------------------------------------------------------------|
A|---------------------------------------------------------------------------------|
E|-3-3-3-3-3-3-0-1-2--3-3-3-3-3-3-0-1-2--3-3-3-3-3-0-1-2--3-3-3-3-3-3-3-2-1--------|
   P.M.____________________________________________________________________________________

Riff 4a
e|-----------------------------------------------------------------------------------|
B|------------------------------------------1---------0--------1--------2---3~-------|
G|------------------------------------------2---------2--------2--------2------------|
D|------------------------------------0-0-0-2--0-0-0--2--0-0-0-2--0-0-0-2------------|
A|-----------------------------------------------------------------------------------|
E|-0-0-0-0-0-0-0-0--0-0-0-0-0-0-0-0--------------------------------------------------|
   P.M.___________________________________

Riff 4b
e|-------------------------------------------------------------------------------------|
B|------------------------------------------1---------0--------1--------2--------------|
G|------------------------------------------2---------2--------2--------2--------------|
D|------------------------------------0-0-0-2--0-0-0--2--0-0-0-2--0-0-0-2--------------|
A|-------------------------------------------------------------------------------------|
E|-0-0-0-0-0-0-0-0--0-0-0-0-0-0-0-0----------------------------------------------------|
   P.M.___________________________________

e|-----------------------------------------------------------------------------|
B|-----------------------------------------------------------------------------|
G|-------2---------4--------5--------7-----------------------------------------|
D|-0-0-0-0--0-0-0-0--0-0-0-0--0-0-0-0------------------------------------------|
A|-----------------------------------------------------------------------------|
E|-----------------------------------------------------------------------------|

Riff 4c
e|-------------------------------------------------------------------------------------|
B|------------------------------------------1---------0--------1--------2--------------|
G|------------------------------------------2---------2--------2--------2--------------|
D|------------------------------------0-0-0-2--0-0-0--2--0-0-0-2--0-0-0-2--------------|
A|-------------------------------------------------------------------------------------|
E|-0-0-0-0-0-0-0-0--0-0-0-0-0-0-0-0----------------------------------------------------|
   P.M.___________________________________

Riff 5
e|--10p8h10p8--6-7-----------------------------------------------------------------|
B|--8-----------7-8-------11p10p8--8------8-12---11p10p8--12--12-11----------------|
G|-------------------------------------7h9----------------12--12-12----------------|
D|---------------------------------------------------------------------------------|
A|---------------------------------------------------------------------------------|
E|---------------------------------------------------------------------------------|

Riff 6
e|-------------------------------------------------------------------------------|
B|-------------------------------------------------------------------------------|
G|-6--6-6-6-6--6--6-6-6-6--6--6-6-6-6--6--6-6-6-6--6-4---------------------------|
D|-7--7-7-7-7--7--7-7-7-7--7--7-7-7-7--7--7-7-7-7--7-5---------------------------|
A|-7--7-7-7-7--7--7-7-7-7--7--7-7-7-7--7--7-7-7-7--7-5---------------------------|
E|-5--5-5-5-5--5--5-5-5-5--5--5-5-5-5--5--5-5-5-5--5-3---------------------------|

e|-------------------------------------------------3-3-------------------------------|
B|-------------------------------------------------5-5-------------------------------|
G|-6--6-6-6-6--6--6-6-6-6--6--6-6-6-6--6--6-6-6-6--5-5-------------------------------|
D|-7--7-7-7-7--7--7-7-7-7--7--7-7-7-7--7--7-7-7-7--5-5-------------------------------|
A|-7--7-7-7-7--7--7-7-7-7--7--7-7-7-7--7--7-7-7-7--3-3-------------------------------|
E|-5--5-5-5-5--5--5-5-5-5--5--5-5-5-5--5--5-5-5-5------------------------------------|

Riff 7 (solo)
e|---------------------------5------------------------------------------------------|
B|-------------------------5----7--7/8--7----8p7---8p7---8p7---8-7-8----------------|
G|------6---------------6-----------------9------9-----9-----9--------7-9-7--6------|
D|--7------7--9-5---7---------------------------------------------------------------|
A|----------------------------------------------------------------------------------|
E|----------------------------------------------------------------------------------|

e|----------------------10p9----10p9----10p9----10p9----10p9-------------------------|
B|--------10-10-----10------10------10------10------10-------10--8-8/10--7-----------|
G|--6/9-9--------9----------------------------------------------------------9--------|
D|-----------------------------------------------------------------------------------|
A|-----------------------------------------------------------------------------------|
E|-----------------------------------------------------------------------------------|

e|-10p9----10p9----10p9------17--15--12--10--9----------------------------------|
B|------10------10-------10----------------------10-----------------------------|
G|---------------------------------------------------9--------------------------|
D|------------------------------------------------------------------------------|
A|------------------------------------------------------------------------------|
E|------------------------------------------------------------------------------|

e|-10p9----10p9----10p9----10p9----10p9-------------------------|
B|------10------10------10------10-------10--8-8/10--7----------|
G|-------------------------------------------------------9------|
D|--------------------------------------------------------------|
A|--------------------------------------------------------------|
E|--------------------------------------------------------------|

e|-10p9----10p9----10p9------10--9-----------------------------------|
B|------10------10-------10---------10--8~---------------------------|
G|-------------------------------------------------------------------|
D|-------------------------------------------------------------------|
A|-------------------------------------------------------------------|
E|-------------------------------------------------------------------|

Riff 8
e|----------------------------------------------------------------------------------|
B|----------------------------------------------------------------------------------|
G|-----------------------------------------------------------3p2p0-2--------0-------|
D|--------------------------------------------------------------------3--2--0-------|
A|--------------------------------------------------------------------------2-------|
E|-3-3-3-3-3-3-0-1-2--3-3-3-3-3-3-0-1-2--3-3-3-3-3-0-1-2--------------------3-------|
   P.M._____________________________________________________________

| /  slide up
|   slide down
| h  hammer-on
| p  pull-off
| ~  vibrato
| +  harmonic
| x  Mute note

All right.  After ALL that, here's the order:

Riff 1
Riff 2
Riff 3
Riff 4a
Riff 2
Riff 3
Riff 4b
Riff 1
Riff 2
Riff 3 (with fills supplied from riff 5)
Riff 4c
Riff 6 x4 (with the solo from Riff 7 over top)
Riff 1
Riff 2
Riff 3 (with fills in the G pentatonic scale that I was too lazy to figure out)
Riff 4b
Riff 3 x3 (with fills in the G pent scale again)
Finish her off with Riff 8

All hail Lord Zortotron
for more about Klaatu:
www.klaatu.org
Tap to rate this tab
# A B C D E F G H I J K L M N O P Q R S T U V W X Y Z