Song name
# A B C D E F G H I J K L M N O P Q R S T U V W X Y Z

Klajdi Haruni - Mamica tab

e|-7-8-8-8-8-8-10-8-7------7-8-8-8-8-8-10-8-7------10-10-10-10-10-12-10-7-8-8|
B|--------------------10----------------------10-----------------------------|
G|---------------------------------------------------------------------------|
D|---------------------------------------------------------------------------|
A|---------------------------------------------------------------------------|
E|---------------------------------------------------------------------------|

e|-10-8-7-7---7-8-8-8-8-8-10-8-7------7-8-8-8-8-8-10-8-7---------------------|
B|-------------------------------10----------------------10---10-10-10-10-10-|
G|---------------------------------------------------------------------------|
D|---------------------------------------------------------------------------|
A|---------------------------------------------------------------------------|
E|---------------------------------------------------------------------------|

e|---7-8---------------------------------------------------------------------|
B|-8-----10------------------------------------------------------------------|
G|---------------------------------------------------------------------------|
D|---------------------------------------------------------------------------|
A|---------------------------------------------------------------------------|
E|---------------------------------------------------------------------------|
Tap to rate this tab
 
# A B C D E F G H I J K L M N O P Q R S T U V W X Y Z