Song name
# A B C D E F G H I J K L M N O P Q R S T U V W X Y Z

Klamydia - Pala Rauhaa tab

Pala Rauhaa Solo : E A D G H E - By Henkka.

---------12----------------------------12------12-------|
-10-9-10----10-9-10-9--5-5--10-9--9-10----9-10-----9-10-|
--------------------------------------------------------|
--------------------------------------------------------|
--------------------------------------------------------|
--------------------------------------------------------|

                |faster |
-10-12-10-9-10--|9.10.9-|-------------14-12------------14-12-|
--------------------------12--10-9-10-------10-10-9-10-------|
-------------------------------------------------------------|
-------------------------------------------------------------|
-------------------------------------------------------------|
-------------------------------------------------------------|

-14-12----14-12----14-12-----10-9-7-5------------------------|
-------10-------10-------10----------------------------------|
-------------------------------------------------------------|
-------------------------------------------------------------|
-------------------------------------------------------------|
-------------------------------------------------------------|
Tap to rate this tab
# A B C D E F G H I J K L M N O P Q R S T U V W X Y Z