Song name
# A B C D E F G H I J K L M N O P Q R S T U V W X Y Z

Klank - God tab

Band: Klank
Song: God

Tabber: John Cukras
Email: riffreaper@yahoo.com

Tuning: E B G D A E

Riff 1: Electric riff.
E----------------------------------
B----------------------------------
G----------------------------------
D----------------------------------
A----6---7---6-----9-8-----8-7-----
E-55---5---5---5-7-----7-6-----6-5-

It periodically hits an A chord on frets 2, 3, and 5. During the many
interludes.

Riff 2: Acoustic riff.
E-----------------------
B-----------------------
G-----------------------
D---5---7---9----4-4-4--
A-0---0---0---0-2-2-2---
E-----------------------
Tap to rate this tab
# A B C D E F G H I J K L M N O P Q R S T U V W X Y Z