Song name
# A B C D E F G H I J K L M N O P Q R S T U V W X Y Z

Klank - Down For Life tab

Band: Klank
Song: Down For Life

Tabber: John Cukras
Email: riffreaper@yahoo.com

Tuning: C G C F A D

Riff 1:
D-------------------------------------------------------|
A-------------------------------------------------------|
F-------------------------------------------------------|
C-------------------------------------------------------|
G-11-1111-1-11--------00-0000-0-00---11-1111-1-11-------|
C-11-1111-1-11 x's 3--00-0000-0-00---11-1111-1-11 x's 8-|
pm.. .... . ..        .. .... . ..

Riff 2: played underneath ^
D-------------|
A-------------|
F-------------|
C-3-6-5-------|
G-1-4-3-------|
C------ x's 8-|

Riff 3:
D---------------------|
A---------------------|
F---------------------|
C---------------------|
G-44-5-2-3-1-0--------|
C-44-5-2-3-1-0  x's 4-|

Riff 2

Riff 3

Riff 4:
D--------------------------------------------------------------------|
A--------------------------------------------------------------------|
F--------------------------------------------------------------------|
C--------------------------------------------------------------------|
G-33333-66-7777-22222-1----------33333-66-7777-2-2-2-2-2-1-1-1-2-1-0-|
C-33333-66-7777-22222-1  x's 3---33333-66-7777-2-2-2-2-2-1-1-1-2-1-0-|

Riff 1 (till end)
Tap to rate this tab
# A B C D E F G H I J K L M N O P Q R S T U V W X Y Z