Song name
# A B C D E F G H I J K L M N O P Q R S T U V W X Y Z

Klank - Dont Like tab

Band: klank
song: don't like

tabber: John Cukras
email: riffreaper@yahoo.com

tuning: normal

riff 1:
E---------------------------------------|
B---------------------------------------|
G---------------------------------------|
D---------------------------------------|
A-99-7/5-7/5--------99-9/12-1212--------|
E-77-5/3-5/3 x's 3--77-7/10-1010  x's 4-|

Riff 2:
E-------------------------|
B-------------------------|
G-------------------------|
D-3/5-3/5-----------------|
A-1/3-1/3-8-7-6-----------|
E---------6-5-4-00  x's 4-|
pm              ..

Riff 1 x's 2

Riff 2

Riff 3:
E------------------------------------------------|
B------------------------------------------------|
G------------------------------------------------|
D-------333-------555-------333-------444--------|
A-------111-------333-------111-------222--------|
E-00000-----00000-----00000-----00000----  x's 2-|
pm.....     .....     .....     .....

Riff 2

Outro:
E-------|
B-------|
G-------|
D-55-3/5
A-33-1/3
E-------  x's 4
Tap to rate this tab
# A B C D E F G H I J K L M N O P Q R S T U V W X Y Z