Song name
# A B C D E F G H I J K L M N O P Q R S T U V W X Y Z

Klank - Downside tab

Band: Klank
song: downside

Tabber: John Cukras
Email: riffreaper@yahoo.com

Tuning: Normal

Riff 1:
e-----------------------|
B-----------------------|
G-----------------------|
D-222-222-222-22-2------| x16
A-222-222-222-22-2-4-3--|
E-000-000-000-00-0-2-1--|

Riff 2:
e--------------|
B--------------|
G--------------|
D--5/7---------|
A--3/5--6-5-3--|
E-------4-3-1--| x16

Riff 3:   A                      B
e----------------------------|-------------------------------|
B----------------------------|-------------------------------|
G----------------------------|-------------------------------|
D----------------------------|----------------------7/9-7/9--|
A-6/55555-5-555-6/5-55-------|-6/55555-5-555-6/5-55-5/7-5/7--|
E-4/33333-3-333-4/3-33 x's 3-|-4/33333-3-333-4/3-33----------|     x4
pm....... . ... ... ..         ....... . ... ... ..

Riff 4:
e---------|
B---------|
G---------|
D---------|
A-6/5-55--|
E-4/3-33--|  x8
pm... ..

Riff 2 x's 24

Riff 3: A x's 3

I found a longer version of this song, it is the same thing.
It just plays riff 1 hordes.
Tap to rate this tab
 
# A B C D E F G H I J K L M N O P Q R S T U V W X Y Z