Song name
# A B C D E F G H I J K L M N O P Q R S T U V W X Y Z

Klank - Woodensoul tab

Band: Klank
song: woodensoul

Tabber: John Cukras
Email: riffreaper@yahoo.com

Tuning: Drop D

Riff 1:
E-----------------------------------------------------------------|
B-----------------------------------------------------------------|
G-----------------------------------------------------------------|
D-----------------------------------------------------------------|
A-0-3-0---0-3-0-5-6-5-0-3-0-5-8-10-0-3-0-5-6-5-7-7-7-7-8-10-------|
D-0-3-0---0-3-0-5-6-5-0-3-0-5-8-10-0-3-0-5-6-5-7-7-7-7-8-10 x's 2-|

Riff 2:   A                                     B
E---------------------------------------|--------------------------------|
B---------------------------------------|--------------------------------|
G---------------------------------------|--------------------------------|
D---------------------------------------|--------------------------------|
A-0-3-0-3-0-6-5-3-0-3-0-3-0-5-7-8-------|-0-3-0-3-0-6-5-3-0-3-0-3-0-8-10-|
D-0-3-0-3-0-6-5-3-0-3-0-3-0-5-7-8 x's 4-|-0-3-0-3-0-6-5-3-0-3-0-3-0-8-10-|
pm. . . . . . . . . . . . . . . .         . . . . . . . . . . . . .

Riff 2: A x's 3 , B

Riff 1 once

Riff 2: A x's 3 , B

Riff 2: A x's 3 , B

Riff 1 once

No Guitar: 1:55 to 3:18

Riff 2

Riff 1

Outro:
E-------------|
B-------------|
G-------------|
D-------------|
A-0-3-0-----5-|
D-0-3-0-----5-|
Tap to rate this tab
# A B C D E F G H I J K L M N O P Q R S T U V W X Y Z