Song name
# A B C D E F G H I J K L M N O P Q R S T U V W X Y Z

Klaus Badelt - The Medallion Calls tab

Once you start playing you'll get the feel for the timing.

e|---------------------------------------------3----------------------------|
B|-0-2-3------3-2-3--------3-------3-2-3-2-0-2---0--------------------------|
G|------0-2-0-------0-2-0----0-2-0------------------------------------------|
D|--------------------------------------------------------------------------|
A|--------------------------------------------------------------------------|
E|--------------------------------------------------------------------------|


e|--------------------------------------------------------------------------|
B|-0-2-3-2-3---3-------3-0-0-2-3-----------3---2-0--------------------------|
G|-----------0---0-2-0-----------0-2-3-2-0---0------------------------------|
D|--------------------------------------------------------------------------|
A|--------------------------------------------------------------------------|
E|--------------------------------------------------------------------------|

e|---------0-----0----------------------------------------------------------|
B|-3-2-0-0---0-2---2-3-2-0-2--0-2-3-----------3---2-0-----------------------|
G|----------------------------------0-2-3-2-0---0---------------------------|
D|--------------------------------------------------------------------------|
A|--------------------------------------------------------------------------|
E|--------------------------------------------------------------------------|

I still haven't figured out the whole song but this is the basics of it
Tap to rate this tab
 
# A B C D E F G H I J K L M N O P Q R S T U V W X Y Z