Song name
# A B C D E F G H I J K L M N O P Q R S T U V W X Y Z

Klaus Badelt - Hes A Pirate tab

I found this on CSGuitar's site, I like the tab because it 
is 100% perfect an not very hard to master. Credits go to CSGuitar89,
http://csguitar89.com/ or http://www.youtube.com/CSGuitar89.
I thought i'd put this up for you :D

Klaus Badelt - Hes A Pirate
By CSGuitar89

Lead guitar

Intro
   D   F   C     D
E|-------------|--------------------|
B|-------------|--------------------|
G|-------------|--------------------|
D|-------------|--------------------|
A|-5---8---3---|-5-5-5--5-5-5---5---|
E|-5---8---3---|-5-5-5--5-5-5---5---|
B|-3---6---1---|-3-3-3--3-3-3---3---|

Main Riff

E|---------|---------|---------|----------|
B|---------|---5-6-6-|-6-8-5-5-|----------|
G|---5-7-7-|-7-------|---------|--7-5-5h7-|
D|-7-------|---------|---------|----------|
A|---------|---------|---------|----------|
E|---------|---------|---------|----------|

E|---------|---------|---------|---------|
B|---------|---5-6-6-|-6-8-5-5-|---------|
G|---5-7-7-|-7-------|---------|--7-5-7--|
D|-7-------|---------|---------|---------|
A|---------|---------|---------|---------|
E|---------|---------|---------|---------|

E|---------|---------|---5-6-6-|-5---5---|
B|---------|---6-8-8-|-8-------|---8-----|
G|---5-7-7-|-7-------|---------|-------7-|
D|-7-------|---------|---------|---------|
A|---------|---------|---------|---------|
E|---------|---------|---------|---------|

                                1st       2nd 
E|---------|----5----|---------|---------|-------|
B|---5-6-6-|--8------|---6-5-5-|--6---5--|-------|
G|-7-------|------7--|-7-------|----7----|-7-5-7-|
D|---------|---------|---------|---------|-------|
A|---------|---------|---------|---------|-------|
E|---------|---------|---------|---------|-------|

E|-----------|-----------|-----------|--------|
B|---5-6-6-8-|-10--------|-11--------|--------|
G|-7---------|----10p7---|----10p7---|-2-7-10-|
D|-----------|---------7-|---------8-|--------|
A|-----------|-----------|-----------|--------|
E|-----------|-----------|-----------|--------|

E|----------------|------------|----------------|----------|
B|-10-10-10-11p10-|-8-8-8-8h10-|-10-10-10-11p10-|-8--------|
G|----------------|------------|----------------|---10-9-7-|
D|----------------|------------|----------------|----------|
A|----------------|------------|----------------|----------|
E|----------------|------------|----------------|----------|
 
Solo

E|------------------------------|
B|--------8-10-8---------8-10-8-|
G|-7-9-10--------10-9-10--------|
D|------------------------------|
A|------------------------------|
E|------------------------------|

E|------------------------------|
B|----8-10-8--------------------|
G|-10--------10-9-10-9-7-7----7-|
D|-------------------------10---|
A|------------------------------|
E|------------------------------|


E|------------------------------|
B|-------------8----8-10-8------|
G|-7-9-10-9-10---10--------10-7-|
D|------------------------------|
A|------------------------------|
E|------------------------------|

E|------------------------------------|
B|--------8-10-11---8----8------------|
G|-7-9-10---------7---10---9-7---9----|
D|---------------------------------10-|
A|------------------------------------|
E|------------------------------------|

Finale

E|---------------------|-----------------|
B|-10-11-10-10-10-10p8-|-8---------------|
G|---------------------|---10-9-10-9-9/7-|
D|---------------------|-----------------|
A|---------------------|-----------------|
E|---------------------|-----------------|

E|-------5-------6------5-5-8-5-----------------|
B|---5-6-----5-6-----5-6--------8-8-------------|
G|-7-------7-------7----------------10-9-10-9-7-|
D|----------------------------------------------|
A|----------------------------------------------|
E|----------------------------------------------|
Tap to rate this tab
 
# A B C D E F G H I J K L M N O P Q R S T U V W X Y Z