Song name
# A B C D E F G H I J K L M N O P Q R S T U V W X Y Z

Klaus Badelt - Hes A Pirate tab

The standard tab changed a little bit to fit in my style ;) It's also a more simple way 
to get the sound right =)
you can add hamer-ons and pull-offs and other stuff where you think its necessary...
Brought to you by : KiLLeRoNi91


Part 1:

|------------------------------------|
|-------------5-6-6-6-8-5-5----------|
|----5--7-7-7---------------7-5-5h7--|
|--7---------------------------------|
|------------------------------------|
|------------------------------------|

|--------------------------------|
|------------5-6-6-6-8-5-5-------|
|----5-7-7-7---------------7-5-7-|
|--7-----------------------------|
|--------------------------------|
|--------------------------------|

|--------------------5-6-6-5---5---|------------5---|----------------|
|------------6-8-8-8---------8-----|----5-6-6-8-----|----6-5-5-------|
|----5-7-7-7---------------------7-|--7-----------7-|--7-------6---5-|
|--7-------------------------------|----------------|------------7---|
|----------------------------------|----------------|----------------|
|----------------------------------|----------------|----------------|

Part 2:

|------------------------------------|
|-------------5-6-6-6-8-5-5----------|
|----5--7-7-7---------------7-5-5h7--|
|--7---------------------------------|
|------------------------------------|
|------------------------------------|

|--------------------------------|
|------------5-6-6-6-8-5-5-------|
|----5-7-7-7---------------7-5-7-|
|--7-----------------------------|
|--------------------------------|
|--------------------------------|

|--------------------5-6-6-5---5---|------------5---|
|------------6-8-8-8---------8-----|----5-6-6-8-----|
|----5-7-7-7---------------------7-|--7-----------7-|
|--7-------------------------------|----------------|
|----------------------------------|----------------|
|----------------------------------|----------------|

|-----------------------------5-------6---------------|
|----6-5-5---------4/5--6-6-8---6-------6-------------|
|--7-------6---5-7----------------7-------7---------7-|
|------------7----------------------7-------8-7-7-8---|
|-----------------------------------------------------|
|-----------------------------------------------------|

Part 3:

|-----------------|-------------|-----------------|-----------|
|--10-10-10-11-10-|--8-8-8-8-10-|--10-10-10-11-10-|--5/8-6-5-3|
|--10-10-10-10-10-|--9-9-9-9-9--|--10-10-10-10-10-|--6/9-7----|
|-----------------|-------------|-----------------|-----------|
|-----------------|-------------|-----------------|-----------|
|-----------------|-------------|-----------------|-----------|

|-------------------------------|-------------------------------|
|---------8-10-8---------8-10-8-|-----8-10-8--------------------|
|--7-9-10--------10-9-10--------|--10--------10-9-10-9-7-9----7-|
|-------------------------------|--------------------------10---|
|-------------------------------|-------------------------------|
|-------------------------------|-------------------------------|

|-------------------------------|-------------------------------|
|--------------8----8-10-8------|---------8-10-11---8-----------|
|--7-9-10-9-10---10--------10-7-|--7-9-10---------7---10-9----7-|
|-------------------------------|--------------------------10---|
|-------------------------------|-------------------------------|
|-------------------------------|-------------------------------|

|---------------------------------|
|--10-11-10-10-10-10/8-8-6-5-6-5-3|
|--10-10-10-10-10-10--------------|    X2
|---------------------------------|
|---------------------------------|
|---------------------------------|

|--------5---|--------6---|--------5-5-8-5-3-----|--3-----------|
|--3-5-6-----|--3-5-6-----|--3-5-6---------------|----6-5-6-5-3-|
|------------|------------|----------------------|--------------|
|------------|------------|----------------------|--------------|   X2
|------------|------------|----------------------|--------------|
|------------|------------|----------------------|--------------|
Tap to rate this tab
 
# A B C D E F G H I J K L M N O P Q R S T U V W X Y Z