Song name
# A B C D E F G H I J K L M N O P Q R S T U V W X Y Z

Klaus Badelt - Hes A Pirate tab

Song: He's a Pirate (from the movie Pirates of Caribbean)
Tabbed by: greybandanna

**READ FIRST**
This is the first time I make a tab. The song was also played by ear, all this means 
that some parts might be wrong (comparing to the original version of the tab, which I don't know).

This is a very easy, original song, perfect for begineers.
Try to play fast and with some rythm. 2 or 3 times will be enough to master it. Just get 
the rythm.

Mail: greybandanna@hotmail.com

e|-----------------|-----------------|-----------------|-----------------|
B|-----------------|--8--------------|-----------------|---8-------------|
G|---7-7--7-9-10-10|10-9-9-7--------7|---7-7--7-9-10-10|10--9-9-7----7---|
D|7-10-------------|----------10-10--|7-10-------------|----------10-----|
A|-----------------|-----------------|-----------------|-----------------|
E|-----------------|-----------------|-----------------|-----------------|

e|-----------------|-----------------|-----------------|-----------------|
B|------------8-8--|-8-10-11-11-10-8-|10---------------|-8-10------------|
G|---7-7--7-10-----|-----------------|--7----7-9-10-10-|-----7-----------|
D|7-10-------------|-----------------|-----------------|-----------------|
A|-----------------|-----------------|-----------------|-----------------|
E|-----------------|-----------------|-----------------|-----------------|

e|-----------------|
B|-----------------|
G|7-10-9-9--7--7---|
D|-----------10----|
A|-----------------|
E|-----------------|

Repeat once again and then

e|-5--5--5-6-5-----|-3--3--3--3-5----|-5--5--5-6-5-----|-3---1-0---------|
B|-5--5--5-5-5-----|-3--3--3--3-3----|-5--5--5-6-5-----|-3---1-0-3-------|
G|-----------------|-----------------|-----------------|---------2-------|
D|-----------------|-----------------|-----------------|-----------------|
A|-----------------|-----------------|-----------------|-----------------|
E|-----------------|-----------------|-----------------|-----------------|

e|-----3-5-3-------|3-5-3---3-5--|3----------------|-----------3-3-5-3---|
B|3-5-6-----6-5-6--|-------6-----|-6-5-6-5-3-5-2-3-|-3-5-6--5-6-6-----6-3|
G|-----------------|-------------|-----------------|---------------------|
D|-----------------|-------------|-----------------|---------------------|
A|-----------------|-------------|-----------------|---------------------|
E|-----------------|-------------|-----------------|---------------------|

e|-----3-5-6-3-3----|-----------------|
B|3-5-6-----3-6-5-3-|5-2-3------------|
G|------------------|-----------------|
D|------------------|-----------------|
A|------------------|-----------------|
E|------------------|-----------------|
Tap to rate this tab
# A B C D E F G H I J K L M N O P Q R S T U V W X Y Z