Song name
# A B C D E F G H I J K L M N O P Q R S T U V W X Y Z

Klaus - I Give You Glory tab

-------------------------------------------------------------------------------
			     I Give You Glory - Klaus
-------------------------------------------------------------------------------
Tabbed by:Steven M.
Email:oneladysman1220@hotmail.com

Tuning:EADGBE (Standard)
Verse 1
e|--------------------------------------------------------------------------|
B|--------------------------------------------------------------------------|
G|------9-9-9p7----4times-------------7-7-7p5-----4times--------------------|
D|--------------------------------------------------------------------------|
A|--------------------------------------------------------------------------|
E|--------------------------------------------------------------------------|
               uses Wah and Delay
e|--------------------------------------------------------------------------|
B|--------------------------------------------------------------------------|
G|------5-------------------------------------------------------------------|
D|------5-------------------------------------------------------------------|
A|------3-------------------------------------------------------------------|
E|--------------------------------------------------------------------------|
Chorus     Distortion
e|--------------------------------------------------------------------------|
B|--------------------------------------------------------------------------|
G|-------5------------------------------------------------------------------|
D|-------5------5------7------3---------------------------------------------|
A|-------3------5------7------3---------------------------------------------|
E|--------------3------5------1---------------------------------------------|

e|--------------------------------------------------------------------------|
B|--------------------------------------------------------------------------|
G|------5555555555555555----------------------------------------------------|
D|------5555555555555555-----5555555555555555------7777777777777777---------|
A|------3333333333333333-----5555555555555555------7777777777777777---------|
E|---------------------------3333333333333333------5555555555555555---------|

e|--------------------------------------------------------------------------|
B|--------------------------------------------------------------------------|
G|--------------------------------------------------------------------------|
D|------3333333333333333----------------------------------------------------|
A|------3333333333333333----------------------------------------------------|
E|------1111111111111111----------------------------------------------------|
Verse 2
e|--------------------------------------------------------------------------|
B|--------------------------------------------------------------------------|
G|------9-9-9p7----4times-------------7-7-7p5-----4times--------------------|
D|--------------------------------------------------------------------------|
A|--------------------------------------------------------------------------|
E|--------------------------------------------------------------------------|

e|--------------------------------------------------------------------------|
B|--------------------------------------------------------------------------|
G|------9-9-9p7----4times-------------7-7-7p5-----4times--------------------|
D|--------------------------------------------------------------------------|
A|--------------------------------------------------------------------------|
E|--------------------------------------------------------------------------|

e|--------------------------------------------------------------------------|
B|--------------------------------------------------------------------------|
G|------5-------------------------------------------------------------------|
D|------5-------------------------------------------------------------------|
A|------3-------------------------------------------------------------------|
E|--------------------------------------------------------------------------|
Chorus     Distortion
e|--------------------------------------------------------------------------|
B|--------------------------------------------------------------------------|
G|-------5------------------------------------------------------------------|
D|-------5------5------7------3---------------------------------------------|
A|-------3------5------7------3---------------------------------------------|
E|--------------3------5------1---------------------------------------------|

Repeat Chorus 2 times

Bridge
e|--------------------------------------------------------------------------|
B|--------------------------------------------------------------------------|
G|--------------------------------------------------------------------------|
D|-----33333333-----55555555-----77777777-----1010101010101010--------------|
A|-----33333333-----55555555-----77777777-----1010101010101010--------------|
E|-----11111111-----33333333-----55555555-----8-8-8-8-8-8-8-8---------------|

Back to Chorus

First tab ever, hope its right, God Bless!
************************************

| /   slide up
| \   slide down
| h   hammer-on
| p   pull-off
| ~   vibrato
| +   harmonic
| x   Mute note
| b   Bend
| pb  Pre-bend
| br  Bend release
| pbr Pre-bend release
| brb Bend release bend

************************************
Tap to rate this tab
 
# A B C D E F G H I J K L M N O P Q R S T U V W X Y Z