Song name
# A B C D E F G H I J K L M N O P Q R S T U V W X Y Z

Klaxons - As Above So Below tab

 -| READ THROUGH BEFORE ATTEMPTING, OTHERWISE, IT'S JUST A WASTE OF YOUR TIME! |-
* The section with the lyrics are a bit complicated,
 just listen to the song and it will hopefully make sense.
** When you play the section that says "placed by night",
 a 'night', you can slide up a bit from 7 to 8 to 7,
 I put them in brackets if you wanted or didn't want to play them.
*** Same type of situation as **, when you have to
 play "the dance of the cosmos shows", on 'shows',
 start with a 1 and slide in the nuts direction 
for a 0 (single e string) for smoothness, if 
this is to hard to understand, just play: e---1-0---|

e------------------------------------------------------|
B--5-5--3---5-5--3---7---0---3-------------------------|
G------------------------------------------------------| x4
D------------------------------------------------------|
A------------------------------------------------------|
E------------------------------------------------------|



e------------------------------------------------------|
                        and 'round your eyes and in the,
B--0-3-5-7-5-7---0-0-10--7-----5----3----5----0---3--5-|*
G------------------------------------------------------|
D------------------------------------------------------|
A------------------------------------------------------|
E------------------------------------------------------|

e------------------------------------------------------|
B--0-3-5-7-5-7---0-0--10-7-7-5-3-7(8-7)**--------------|
G------------------------------------------------------|
D------------------------------------------------------|
A------------------------------------------------------|
E------------------------------------------------------|

e------------------------------------------------------|
B--0-3-5-7-5-7---0-0-10--7-----5----3----5----0---3----|
G------------------------------------------------------|
D------------------------------------------------------|
A------------------------------------------------------|
E------------------------------------------------------|

e------------------------------------------------------|
B--0-0-3-5-7-5-7--0--10-7-7-5-3-7(8-7)-----------------|
G------------------------------------------------------|
D------------------------------------------------------|
A------------------------------------------------------|
E------------------------------------------------------|

e------------------------------------------------------|
B------------------------------------------------------|
G------------------------------------------------------|x2
D------------------------------------------------------|
A-------1--------1--------1--------1-------------------|
E--2-2------2-2------2-2------2-2----------------------|

e---5-5-5-5-5-7--1(0)***-------------------------------|
B------------------------------------------------------|
G------------------------------------------------------|
D------------------------------------------------------|
A------------------------------------------------------|
E------------------------------------------------------|

e---5-5-5-5-5-7--1(0)***-------------------------------|
B-------------------------3-5-5-3----------------------|
G------------------------------------------------------|
D------------------------------------------------------|
A------------------------------------------------------|
E------------------------------------------------------|

e---5-5-5-5-5-7--1(0)***-------------------------------|
B------------------------------------------------------|
G------------------------------------------------------|
D------------------------------------------------------|
A------------------------------------------------------|
E------------------------------------------------------|

    as a bo-ve so,       be-low
e---5--5--5-7--1(0)***---------------------------------|
B-------------------------3-5--------------------------|
G------------------------------------------------------|
D------------------------------------------------------|
A------------------------------------------------------|
E------------------------------------------------------|

e------------------------------------------------------|
B------------------------------------------------------|
G------------------------------------------------------|x2
D------------------------------------------------------|
A------1-------1-----1------1--------------------------|
E---2-----2-2-----2-----2-2----------------------------|

    
e------------------------------------------------------|
B---0-0-3-5-7-5-7-0-0-10-7-5-3-5-0---------------------|
G------------------------------------------------------|
D------------------------------------------------------|
A------------------------------------------------------|
E------------------------------------------------------|

   
e------------------------------------------------------|
B---0-3-5-7-5-7-0-0-10-7-7-5-3-7(8-7)------------------|
G------------------------------------------------------|
D------------------------------------------------------|
A------------------------------------------------------|
E------------------------------------------------------|

    
e------------------------------------------------------|
B---0-0-3-5-7-5-7-0-0-10-7-5-3-5-0---------------------|
G------------------------------------------------------|
D------------------------------------------------------|
A------------------------------------------------------|
E------------------------------------------------------|

e------------------------------------------------------|
B---0-0-3-5-7-5-7-0-0-10-7-7-5-3-5-0-------------------|
G------------------------------------------------------|
D------------------------------------------------------|
A------------------------------------------------------|
E------------------------------------------------------|

e------------------------------------------------------|
B---0-0-3-5-7-5-7-0-0-10-7-7-5-3-7(8-7)----------------|
G------------------------------------------------------|
D------------------------------------------------------|
A------------------------------------------------------|
E------------------------------------------------------|

e------------------------------------------------------|
B---0-0-3-5-7-5-7-0-0-10-7-7-5-3-7(8-7)----------------|
G------------------------------------------------------|
D------------------------------------------------------|
A------------------------------------------------------|
E------------------------------------------------------|

e---5-5-5-5-5-7--1(0)***-------------------------------|
B------------------------------------------------------|
G------------------------------------------------------|
D------------------------------------------------------|
A------------------------------------------------------|
E------------------------------------------------------|

e---5-5-5-5-5-7--1(0)***-------------------------------|
B-------------------------3-5-5-3----------------------|
G------------------------------------------------------|
D------------------------------------------------------|
A------------------------------------------------------|
E------------------------------------------------------|

e---5-5-5-5-5-7--1(0)***-------------------------------|
B------------------------------------------------------|
G------------------------------------------------------|
D------------------------------------------------------|
A------------------------------------------------------|
E------------------------------------------------------|

    as a bo-ve so,       be-low
e---5--5--5-7--1(0)***---------------------------------|
B-------------------------3-5--------------------------|
G------------------------------------------------------|
D------------------------------------------------------|
A------------------------------------------------------|
E------------------------------------------------------|

e---5-5-5-5-5-7--1(0)***-------------------------------|
B------------------------------------------------------|
G------------------------------------------------------|
D------------------------------------------------------|
A------------------------------------------------------|
E------------------------------------------------------|

e---5-5-5-5-5-7--1(0)***-------------------------------|
B-------------------------3-5-5-3----------------------|
G------------------------------------------------------|
D------------------------------------------------------|
A------------------------------------------------------|
E------------------------------------------------------|

e---5-5-5-5-5-7--1(0)***-------------------------------|
B------------------------------------------------------|
G------------------------------------------------------|
D------------------------------------------------------|
A------------------------------------------------------|
E------------------------------------------------------|

    as a bo-ve so,       be-low
e---5--5--5-7--1(0)***---------------------------------|
B-------------------------3-5--------------------------|
G------------------------------------------------------|
D------------------------------------------------------|
A------------------------------------------------------|
E------------------------------------------------------|
 Galloping, galloping beams faster,
e------------------------------------------------------|
B--5-5--3---5-5--3-----7------0---3--------------------|
G------------------------------------------------------| x4
D------------------------------------------------------|
A------------------------------------------------------|
E------------------------------------------------------|

 Joining together and still, faster,
e------------------------------------------------------|
B--5-5---3---5-5---3----7----0---3---------------------|
G------------------------------------------------------| x4
D------------------------------------------------------|
A------------------------------------------------------|
E------------------------------------------------------|
   On  wards past never and still faster
e------------------------------------------------------|
B--5-5---3----5----5---3------7---0---3----------------|
G------------------------------------------------------|
D------------------------------------------------------|
A------------------------------------------------------|
E------------------------------------------------------|
 (Background) the dance of the cosmos shows,
e------------------------------------------------------|
B------------------------------------------------------|
G------------------------------------------------------|
D------------------------------------------------------|
A------------------------------------------------------|
E------------------------------------------------------|

e---5-5-5-5-5-7--1(0)***-------------------------------|
B------------------------------------------------------|
G------------------------------------------------------|
D------------------------------------------------------|
A------------------------------------------------------|
E------------------------------------------------------|

e---5-5-5-5-5-7--1(0)***-------------------------------|
B-------------------------3-5-5-3----------------------|
G------------------------------------------------------|
D------------------------------------------------------|
A------------------------------------------------------|
E------------------------------------------------------|

e---5-5-5-5-5-7--1(0)***-------------------------------|
B------------------------------------------------------|
G------------------------------------------------------|
D------------------------------------------------------|
A------------------------------------------------------|
E------------------------------------------------------|

    as a bo-ve so,       be-low
e---5--5--5-7--1(0)***---------------------------------|
B-------------------------3-5--------------------------|
G------------------------------------------------------|
D------------------------------------------------------|
A------------------------------------------------------|
E------------------------------------------------------|

     hope this helped.
Tap to rate this tab
# A B C D E F G H I J K L M N O P Q R S T U V W X Y Z