Song name
# A B C D E F G H I J K L M N O P Q R S T U V W X Y Z

Klaxons - Echoes Acoustic tab

Artist: Klaxons
Song: Echoes (Acoustic)
Tuning: Standard


Chords Used:

    A  G#m C#m  B
e|--5---4---4---7--|
B|--5---4---5---7--|
G|--6---4---6---8--|
D|--7---6---6---9--|
A|--7---6---4---9--|
E|--5---4---4---7--|


INTRO:

A G#m C#m B
A G#m C#m C#m (End on single C#m strum)


VERSE:

A	      G#m	   C#m
Send out a sound for the wood between the worlds
A	      G#m	   C#m
Gently repeat as the boundaries start to swirl
A	      G#m	   C#m
Keep to the call that is twice now liminal
A	      G#m	   C#m
It's not the same where the trails lead to the outer regions


CHORUS:

A	         G#m	   	 C#m		B
Echoes from the otherworld turn horizons into endless ever present
A	     G#m	      C#m	       B
Echoes many otherworlds true horizon start to turn 


e|---------------------------------------------------|
B|--9-7-7-7------------------------------------------|
G|----------9-9-9-8-8-8-6-6-------------8-8-8-8-8-8--|
D|--------------------------6-6-6-6-6-6--------------|
A|---------------------------------------------------|
E|---------------------------------------------------|

e|---------------------------------------------------|
B|--9-7-7-7------------------------------------------|
G|----------9-9-9-8-8-8-6-6--------------------------|
D|--------------------------6-6-6-6-6-6-6(let ring)--|
A|---------------------------------------------------|
E|---------------------------------------------------|


VERSE:

A	    G#m		    C#m
Numberless names withe the force of the ninth wave
A	    G#m		    C#m
Keep to the call that's repeated in the outer regions


CHORUS:

A	         G#m	   	 C#m		B
Echoes from the otherworld turn horizons into endless ever present
A	     G#m	      C#m	       B
Echoes many otherworlds true horizon start to turn
A		    G#m	        C#m	B
Echoes reflect and change they serenade
A		    G#m	        C#m	B
Echoes reflect and change they serenade


FILL:

A G#m C#m B
A G#m C#m B	(Single strums except for 2nd C#m and B)


CHORUS:


A	         G#m	   	  C#m		 B
Echoes from the otherworld turn the horizon into endless ever present 
A	         G#m	       C#m		 B
Echoes many otherworlds true horizon makes the endless ever present
A	         G#m	       C#m		 B
Echoes into otherworlds true horizons into the endless ever present
A	         G#m	       C#m	       B
Echoes many otherworlds true horizon takes a turn
A		    G#m	        C#m	B
Echoes reflect and change they serenade
A		    G#m	        C#m	B
Echoes reflect and change they serenade


OUTRO:

e|---------------------------------------------------|
B|--9-7-7-7------------------------------------------|
G|----------9-9-9-8-8-8-6-6-------------8-8-8-8-8-8--|
D|--------------------------6-6-6-6-6-6--------------|
A|---------------------------------------------------|
E|---------------------------------------------------|

e|--------------------------------------4------------|
B|--9-7-7-7-----------------------------5------------|
G|----------9-9-9-8-8-8-6-6-------------6------------|
D|--------------------------6-6-6-6-6-6-6(till end)--|
A|--------------------------------------4------------|
E|--------------------------------------4------------|

End on C#m
Tap to rate this tab
 
# A B C D E F G H I J K L M N O P Q R S T U V W X Y Z