Song name
# A B C D E F G H I J K L M N O P Q R S T U V W X Y Z

Klimt 1918 - Lomo tab

Help us improve GuitareTab! Take a short survey!
BAND:     KLIMT 1918
MUSIC:    LOMO
ALBUM:    DOPOGUERRA

TAB:      ERIC FRANK LI
CONTACT:  ERICUT@GMAIL.COM
GUITAR:   LEAD GUITAR TAB        (COBEIN HAND MADE)

INSTRUCTIONS:

EADGBe            STANDARD
+                 MORE PICKING
/                 SLIDE
*                 LET RING
PICKING MODE      ALWAYS PICKING WITHOUT STOP
EFFECTS           CHORUS 60% / REVERB 10%
                  SIMPLE DELAY 25% / END DELAY 10%
                  BASIC DISTORTION => GHOST KIND EFFECT


[INTERLUDE] 00:00 PICKING MODE

e------------------------|
B------------------------|
G--07--06--04--01-02-01--|
D------------------------|
A------------------------|
E------------------------|

[VERSE 2] 00:22 PICKING MODE

e--------------------------|
B--------------------------|
G--07-11-06--04--01-02-01--|
D--------------------------|
A--------------------------|
E--------------------------|

[CHORUS] 00:42 PICKING MODE

e-------------------------------------------------|
B-------------------------------------------------|
G--04-06-07-06-04-06-07-09--04-06-07-06-11-09-04!-|
D-------------------------------------------------|
A-------------------------------------------------|
E-------------------------------------------------|

[VERSE 3] 01:06 PICKING MODE

e------------------------|
B--07--05--07--02-03-02--|
G------------------------|
D------------------------|
A------------------------|
E------------------------|

[VERSE 3] 01:06 SUPPORT GUITAR PICKING MODE

e------------------------|
B------------------------|
G--07--06--04--01-02-01--|
D------------------------|
A------------------------|
E------------------------|

[VERSE 4] 01:27 PICKING MODE

e-----------------------------|
B--12-10--07-05--12-14-15-17--|
G-----------------------------|
D-----------------------------|
A-----------------------------|
E-----------------------------|

[VERSE 4] 01:27 SUPPORT GUITAR PICKING MODE

e--------------------------|
B--------------------------|
G--07-11-06--04--01-02-01--|
D--------------------------|
A--------------------------|
E--------------------------|

[MIDDLE] 01:48 CLEAN

e-----------------------------------------------|
B-------------07-05------------07-05------------|
G--(04)-06-07-------(04)-06-07-------07-07-06---|
D-----------------------------------------------|
A-----------------------------------------------|
E-----------------------------------------------|

[MIDDLE] 02:08 SUPPORT GUITAR PICKING MODE

e---------------------------|
B---------------------------|
G--11--09--07-06-07--06-04--|
D---------------------------|
A---------------------------|
E---------------------------|

[MIDDLE] 02:28 SUPPORT GUITAR PICKING MODE

e----------------------------------------------------------------|
B-----(14)-(15)----(14)-(15)----------(14)-(15)-------(14)-(15)--| G3
G--11-----------09-----------07-06-07-----------06-04------------|
D----------------------------------------------------------------|
A----------------------------------------------------------------|
E----------------------------------------------------------------|

[VERSE 5] 02:48 PICKING MODE

e---------------------------|
B--12--14-15----------------| 4X
G---------------------------|
D---------------------------|
A---------------------------|
E---------------------------|

[VERSE 5] 03:08 CLEAN

e------------------------------|
B-----07-05-07-------07-05-07--| 3X
G--06----------06-06-----------|
D------------------------------|
A------------------------------|
E------------------------------|

e------------------------------|
B------------------------------|
G--04-XX-06-XX-XX-07-----------|
D------------------------------|
A------------------------------|
E------------------------------|

[VERSE 5] 03:28 PICKING MODE

e---------------------------|
B-----07-05-07----07-05-07--| 3X
G--06----------06-----------|
D---------------------------|
A---------------------------|
E---------------------------|

e------------------------------|
B------------------------------|
G--04-XX-06-XX-XX-07-----------|
D------------------------------|
A------------------------------|
E------------------------------|


BY ATMOS (ERIC FRANK LI)
Related for Lomo tab