Guitaretab - guitar tabs
Song name
# A B C D E F G H I J K L M N O P Q R S T U V W X Y Z

Klonhertz - Three Girl Rhumba tab

-------------------------------------------------------------------------------
			     Three Girl Rhumba - Klonhertz
-------------------------------------------------------------------------------
Tabbed by: Dylan
Email: odin13@rock.com

Tuning: Standard (E A D G B e)

This is a very simple song, basically made up of two riffs, they are:
[ Tab from: http://www.guitaretab.com/k/klonhertz/145321.html ]
e|----------------|
B|----------------|
G|----------------|
D|---9--x-7-9-9---|
A|---9--x-7-9-9---|
E|---7--x-5-7-7---|

e|--------------------------|
B|--------------------------|
G|--------------------------|
D|--2--4--7--9--x-7-9-9-----|    (Repeat)
A|--2--4--7--9--x-7-9-9-----|
E|--0--2--5--7--x-5-7-7-----|

and that's pretty much it, email me if you have any corrections. cheers!

| /  slide up
| \  slide down
| h  hammer-on
| p  pull-off
| ~  vibrato
| +  harmonic
| x  Mute note
===============================================================================