Guitaretab - guitar tabs
Song name
# A B C D E F G H I J K L M N O P Q R S T U V W X Y Z

Kmfdm - Free Your Hate tab

-------------------------------------------------------------------------------
			     SONG NAME - free your hate
-------------------------------------------------------------------------------
Tabbed by: syslipornson D n my gtar teacher
Email:anuozkast@aol.com

Tuning:i think my teacher (AT) said C or D

e|--------------------------------------------------------------------------|
B|--------------------------------------------------------------------------|
G|---------------5-7--------------------------------------------------------|
D|---0---1---0---5-7--------------------------------------------------------|
A|---0---1---0---3-5--------------------------------------------------------|
C|---0---1---0--------------------------------------------------------------|
[ Tab from: http://www.guitaretab.com/k/kmfdm/104544.html ]
e|--------------------------------------------------------------------------|
B|--------------------------------------------------------------------------|
G|---------------5-7--------------------------------------------------------|
D|---0---1---0---5-7---3--3---3--3------------------------------------------|
A|---0---1---0---3-5---3--3---3--3------------------------------------------|
C|---0---1---0---------3--3---3--3------------------------------------------|


e|--------------------------------------------------------------------------|
B|--------------------------------------------------------------------------|
G|--------------------------------------------------------------------------|
D|----0---1-----------------------------------------------------------------|
A|----0---1-----------------------------------------------------------------|
C|----0---1-----------------------------------------------------------------|

e|--------------------------------------------------------------------------|
B|--------------------------------------------------------------------------|
G|--------------------------------------------------------------------------|
D|---3---4---0---3-4---0----------------------------------------------------|
A|---3---4---0---3-4---0----------------------------------------------------|
C|---3---4---0---3-4---0----------------------------------------------------|


well that is it i dont remember how AT organized it
i just remember that is wat we came up with
so u will hav 2 put it all together

if u dont like it or it is wrong  some way i sorry
just yell @ me @ anuozkast@aol.com
----------------------------------------------------------------------------------
Related for Free Your Hate tab
Advertisement will be closed in 10 seconds