Song name
# A B C D E F G H I J K L M N O P Q R S T U V W X Y Z

Kmfdm - Stars And Stripes tab

Stars and Stripes
by KMFDM
from WWIII
Tabbed by Angel Fires

Okay guys I'm like positive this is right. It's pretty hard to play amd really hard to
out, I had to get help with it.  But here it goes. By the way, on the main riff, you
HAVE to palm mute it, it sounds better but it's harder. I know that some of there other 
are Drop C, but this is for SURE Drop D.

Intro Riff:
e-----------------|-----------------|------------------------|
B-----------------|-----------------|------------------------|
G-7-7-7-7-7-7-7-7-|-5-5-5-5-5-5-5-5-|------------------------|
D-7-7-7-7-7-7-7-7-|-5-5-5-5-5-5-5-5-|-1----1--1---1----1--1--|
A-5-5-5-5-5-5-5-5-|-3-3-3-3-3-3-3-3-|-1----1--1---1----1--1--|
D-----------------|-----------------|-1----1--1---1----1--1--|
PM                                    .    .  .   .    .  .

Main Riff (used for Pre-verse, Verse, and Chorus):

e----------------------------------|----------------------------------|
B----------------------------------|----------------------------------|
G----------------------------------|----------------------------------|
D----------------------------------|----------------------------------|
A----------------------------------|----------------------------------|
D-8/10-0-0-10/12-0-0-12/13-0-0-0-0-|-13/12-0-0-12/10-0-0-10/8-0-0-0-0-|
PM     . .       . .       . . . .         . .       . .      . . . .
(cont)
|----------------------------------|---------------------|
|----------------------------------|---------------------|
|----------------------------------|---------------------|
|----------------------------------|-8--8-----8--8--8--8-|
|----------------------------------|-8--8-----8--8--8--8-|
|-8/10-0-0-10/12-0-0-12/13-0-0-0-0-|-8--8-0-0-8--8--8--8-|
       . .       . .       . . . .        . .
Tap to rate this tab
# A B C D E F G H I J K L M N O P Q R S T U V W X Y Z