Song name
# A B C D E F G H I J K L M N O P Q R S T U V W X Y Z

Kmfdm - Godlike tab

KMFDM - Godlike
Naive
1990

Note: I prefer to capo it a half step up... so the tab is relative to the capo.

e|------------------------------------|
b|------------------------------------|
g|------------------------------------|
d|------------------------------------|
a|--8p7-----------6h7p6---5h6p5-4h5p4-|
E|------0-0-0-0-0-------0-------------|
   PM|-----------|

e|-----------------------------|
b|-----------------------------|
g|-----------------------------|
d|-----------------------------|
a|---------------1-------1-1---|
E|-0-3-2-0-3-2-0---3-2-0-----0-|
PM|-------------| |-----|   |-|

Lyrics:
I'll pray
And pray
That your country
Undergoes recovery

Use the power
Taste the bliss
Harvest salvation

Now is the time
Get on the right side
You'll be Godlike
You'll be Godlike

Escape your old life
Of bondage and sin

Now is the time
Get on the right side
You'll be Godlike
You'll be Godlike
You'll be Godlike

Raise your head from the ashes
From the fire

Now is the time
Get on the right side
You'll be Godlike
You'll be Godlike
You'll be Godlike
Tap to rate this tab
# A B C D E F G H I J K L M N O P Q R S T U V W X Y Z