Song name
# A B C D E F G H I J K L M N O P Q R S T U V W X Y Z

Kmfdm - Professional Killer tab

KMFDM - Professional Killer


.. = Sustain
/  = Slide
~  = Tremolo
h = Hammer on
p = pick off
^ = palm mute

Guitar - Heavy Distortion

Pre-Chorus

e----------------------|--------------------|---------------|---------------|
B----------------------|--------------------|---------------|--8-7-3--------|
G----------------------|--------------------|---------------|--8-7-3--------|
D--6../8/3..-----------|---/8/6..-----------|----/7..-------|--8-7-3--------|
A--6../8/3..-----------|---/8/6..-----------|----/7..-------|--6-5-1--------|
E--4../6/1..-----------|---/6/4..-----------|----/5..-------|---------------|

Chorus

e----------------------|--------------------|---------------|---------------|
B-/5~------------------|--------------------|---------------|-5~------------|
G-/5~------------3-----|--------------------|---------------|-5~------------|
D-/5~------------3-----|--------------------|---------------|-5~------------|
A-/3-----------3-1-----|--------------------|---------------|-3-------------|
E---0-0-0-1h3--1-------|-0-0-0-0-0-0-0-0-0--|-1h3--1h3------|----0-0-0------|
    ^ ^ ^                ^ ^ ^ ^ ^ ^ ^ ^ ^                       ^ ^ ^

e----------------------|--------------------|---------------|---------------|
B--------------3-------|--------------------|---------------|---------------|
G--------------3-------|--------------------|---------------|---------------|
D----------3---1-------|------------1p0-----|---------------|---------------|
A------3---1-----------|----------------0h1-|---------------|---------------|
E-1h3--1---------------|-0-0-0-0-0----------|---------------|---------------|
                         ^ ^ ^ ^ ^
Tap to rate this tab
# A B C D E F G H I J K L M N O P Q R S T U V W X Y Z