Song name
# A B C D E F G H I J K L M N O P Q R S T U V W X Y Z

Kmfdm - Wwiii tab

Song - WWIII
Artist - KMFDM
Album - WWIII
Tabbed by Angel Fires

Tuning -  Drop C, low to high (C G C F A D)

~ vibrato
^ bend
h hammer on
p pull off
/ slide
!@#$ strange effects and feedback

Steel string acoustic intro:
D-0---------------|-----------------|-----------------|-----------------|
A-----0-----------|-----------------|-----------------|-----------------|
F-------0---------|-----------------|-----------------|-----------------|
C---------0-------|-----------------|-0-3--0-3~~~~~~~~|-----------------|
G----------0------|-----------------|-0-3--0-3^-------|-----------------|
C-----------0-----|-----------------|-0-3--0-3^-------|-----------------|

Let ring----------------------------|


D----------------------------------------------------------------------------|
A----------------------------------------------------------------------------|
F----------------------------------------------------------------------------|
C-3--0--0-0-0-3--0--0-0-0-|-3--0--0-0-0-3--0--0-0-0-|-3--0--0-0-0-3--0--0-0--|
G-3--0--0-0-0-3--0--0-0-0-|-3--0--0-0-0-3--0--0-0-0-|-3--0--0-0-0-3--0--0-0--|
C-3--0--0-0-0-3--0--0-0-0-|-3--0--0-0-0-3--0--0-0-0-|-3--0--0-0-0-3--0--0-0--|

*Gun Shots*

Distorted Guitar - Verse:

 Repeat 3 Times
D---------------------------------|-----------------------------|
A---------------------------------|-----------------------------|
F:--------------------------------|-----------------------------|
C:-3--0-0-0-0-0-0-0-0-0-0-0-0-0-0-|-3--4--0-0-0-0-0-0-0-0-0-0-0-|
G--3--0-0-0-0-0-0-0-0-0-0-0-0-0-0-|-3--4--0-0-0-0-0-0-0-0-0-0-0-|
C--3--0-0-0-0-0-0-0-0-0-0-0-0-0-0-|-3--4--0-0-0-0-0-0-0-0-0-0-0-|

PM    . . . . . . . . . . . . . .         . . . . . . . . . . .


D-------------------------------|-------------------------|
A-------------------------------|-------------------------|
F------------------------------:|-------------------------|
C-4--4--0--0-0-0-0-0-0-0-0-0-0-:|-3-7--6--5--3--5--3--0-0-|
G-4--4--0--0-0-0-0-0-0-0-0-0-0--|-3-7--6--5--3--5--3--0-0-|
C-4--4--0--0-0-0-0-0-0-0-0-0-0--|-3-7--6--5--3--5--3--0-0-|

PM         . . . . . . . . . .


Solo Type Thing:

D---------------------------------------|----------------------------------|
A---------------------------------------|-15-----13-11-10-9-8-!@#$-6-8-5---|
F---------------------------------------|----------------------------------|
C-0-!@#$%!@#$%!@#$%!@#$%@#$#!@#!@#!@#@#-|----------------------------------|
G---------------------------------------|----------------------------------|
C---------------------------------------|----------------------------------|
  w/ wah
Tap to rate this tab
 
# A B C D E F G H I J K L M N O P Q R S T U V W X Y Z