Song name
# A B C D E F G H I J K L M N O P Q R S T U V W X Y Z

Kmfdm - Disobedience tab

pre-chorus:
e|---------------------------------------------|
b|---------------------------------------------|
g|----------2--4-----2--2--2--7--7--6--4--2----|
d|--2h4-----2--4-----2--2--2--7--7--6--4--2----|
a|--0h2-----0--2-----0--0--0--5--5--4--2--0----|
e|---------------------------------------------|
            p              p

e|-------------------------------------------------|
b|-------------------------------------------------|
g|--2--4-----2-7-6-4---2-7-6-4---------------------|
d|--2--4-----2-7-6-4---2-7-6-4-----2-2-2h4--2-2----|
a|--0--2-----0-5-4-2---0-5-4-2-----0-0-0h2--0-0----|
e|-------------------------------------------------|
    p        p         p           p p      p p

chorus
e|----------------------------------------------------------|
b|----------------------------------------------------------|
g|------------------------3----------------------------3----|
d|----------3-1---1-------3--------------1-------------3----|
a|--0---0-0-----3---3/1--------0-0-1-2-3---3-2-1---1--------|
e|----------------------------------------------------------|
    p   p p p p p p            p p p p p p p p p

e|----------------------------------------------------------------|
b|----------------------------------------------------------------|
g|------------------------3------------------------3-3-1-1--------|
d|----------3-1---1-------3--------------1-----------------0-0----|
a|--0---0-0-----3---3/1--------0-0-1-2-3---3-2-1-1----------------|
e|----------------------------------------------------------------|
    p   p p p p p p            p p p p p p p p

outro:
e|----------------------------------------|
b|----------------------------------------|
g|----------------------------------------|
d|--2h4---2-2--2h4--2-2--2h4--2-2--2h4----|
a|--0h2---0-0--0h2--0-0--0h2--0-0--0h2----|
e|----------------------------------------|
          p p       p p       p p
Tap to rate this tab
# A B C D E F G H I J K L M N O P Q R S T U V W X Y Z