Song name
# A B C D E F G H I J K L M N O P Q R S T U V W X Y Z

Kmfdm - Sturm Und Drang tab

KMFDM
Sturm und Drang
From the album ATTACK
tabbed by javi_twiggy


synth bass intro:
g|---------------------------------|
d|------4----------4---------------|
a|--6-6---6-6----6---6----6-5-4----|
e|---------------------------------|


main riff:
e|------------------------------------------------|
b|------------------------------------------------|
g|--8-8-8-/11---8---8-8---8-8-8/11-8---8-8-7-6----|
d|--8-8-8-/11---8---8-8---8-8-8/11-8---8-8-7-6----|
a|--6-6-6-/9----6---6-6---6-6-6/9--6---6-6-5-4----|
e|------------------------------------------------|


pre-chorus:
e|-------------------------------|
b|-------------------------------|
g|-------------------------------|
d|--7-----6-----7----6---5--4----|
a|--7-----6-----7----6---5--4----|
e|--5-----4-----5----4---3--2----|


solo:
e|---------------------------------------------------------------------|
b|---------------------------------------------------------------------|
g|---------------------------------------------------------------------|
d|--2-2-2/4-5/7-5-4\2-0---4-4-4-5-7-9-7-5-4-----6/9-9-9-8-6-4-6-8------|
a|------------------------------------------6---------------------6----|
e|---------------------------------------------------------------------|

e|-----------------------------------------|
b|-----------------------------------------|
g|-----------------------------------------|
d|--4-3-/6-4-/8-6-/9-8-/11-9-/13-11-13\----|
a|-----------------------------------------|
e|-----------------------------------------|

that's it!
easy and kickass
mecagoendios
Tap to rate this tab
 
# A B C D E F G H I J K L M N O P Q R S T U V W X Y Z