Guitaretab - guitar tabs
Song name
# A B C D E F G H I J K L M N O P Q R S T U V W X Y Z

Kna Connected - Fibs tab

-------------------------------------------------------------------------------
			     FIBS- KNA Connected
-------------------------------------------------------------------------------
Tabbed by: Gus Pablo

[ Tab from: http://www.guitaretab.com/k/kna-connected/93081.html ]
e|-----0-0-0-0-1-0-------------|
B|-1-3-------------3-1--3-1----|
G|--------------------------2--|
D|-----------------------------|
A|-----------------------------|
E|-----------------------------|

e|-----0-0-0-0-1-0----------0--|
B|-1-3-------------3-1--3-1----|
G|-----------------------------|
D|-----------------------------|
A|-----------------------------|
E|-----------------------------|


It's played on some kind of toy piano in the actual song, but this is how it'd be played on guitar. 

KNA Connected Website: www.knaconnected.com
Related for Fibs tab
Advertisement will be closed in 10 seconds