Song name
# A B C D E F G H I J K L M N O P Q R S T U V W X Y Z

Knaan - Wavin Flag tab

Intro:

e--------------------------------------------------------|
h--------------------------------------------------------|
g--------------------------------------------------------|
d----------------3-3-3-3\2-0--2-2-2-0--------------------|
a---3-3-5-5/7-3-----------------------3--3/5-5-5/7-5-3-2-|
E--------------------------------------------------------|


Troughout the rest of the song play:

        C       F       Am      G

e-------0-------1-------0-------3-------|
h-------1-------1-------1-------3-------|
g-------0-------2-------2-------0-------|
d-------2-------3-------2-------0-------|
a-------3-------3-------0-------2-------|
E-------x-------1-------x-------3-------|


x - dont play
/ - slide up
\ - slide down
Tap to rate this tab
 
# A B C D E F G H I J K L M N O P Q R S T U V W X Y Z